Foo Fighters

Foo Fighters - Come Alive guitar tab

-------------------------------------------------------------------------------

COME ALIVE - Foo Fighters

-------------------------------------------------------------------------------

Tabbed by: Barry Miles

Email: webmaster at tabs-database.com.com

Tuning: EADGBF#

Hey, this one was alot of work too, new album's getting alot harder to tab. I know the

tuning is risky, but I'm positive it's the tuning. If you're not always going back and

between the E and the F#, it's less likely to snap. Leave comments if you see anything

can be fixed.

I've got it arranged for 3 guitars throughout, and check out my guitar pro tab, that

alot of work too, with the drums and stuff.

Intro/Verse:

Guitar 1 (acoustic)

F#|-------0-----|-------------|-------0-----|-------------|

B|-------------|-------0-----|-------------|-------0-----|

G|-7-----------|-2-----------|-9-----------|-4-----------|

D|---7-------7-|---2-------2-|---9-------9-|---4-------4-|

A|-------------|-------------|-------------|-------------|\\

E|-7---7---7---|-2---2---2---|-9---9---9---|-4---4---4---| \\

Repeat

F#|-------0-----|-------------|-------0-----|-------------| / x 5

B|-------------|-------0-----|-------------|-------------|/

G|-7-----------|-2-----------|-9-----------|-4-----------|

D|---7-------7-|---2-------2-|---9-------9-|-------------|

A|-------------|-------------|-------------|-------------|

E|-7---7---7---|-2---2---2---|-9---9---9---|-4-----------|

Chorus 1:

Guitar 1 (acoustic, strum lightly)

F#|-0---0-0-0-0-|-0---0-0-0-0-|-0---0-0-0-0-|-0---0-0-0-0-|-0---0-0-0-0-|-0---0-0-0-0-|

B|-0---0-0-0-0-|-0---0-0-0-0-|-0---0-0-0-0-|-0---0-0-0-0-|-0---0-0-0-0-|-0---0-0-0-0-|

G|-4---4-4-4-4-|-4---4-4-4-4-|-6---6-6-6-6-|-6---6-6-6-6-|-8---8-8-8-8-|-8---8-8-8-8-|

D|-5---5-5-5-5-|-5---5-5-5-5-|-7---7-7-7-7-|-7---7-7-7-7-|-9---9-9-9-9-|-9---9-9-9-9-|

A|-5---5-5-5-5-|-5---5-5-5-5-|-7---7-7-7-7-|-7---7-7-7-7-|-9---9-9-9-9-|-9---9-9-9-9-|

E|-3---3-3-3-3-|-3---3-3-3-3-|-5---5-5-5-5-|-5---5-5-5-5-|-7---7-7-7-7-|-7---7-7-7-7-|

|Guitar 2 (acoustic) |

F#|-0-----------|-------------|-0-----------|-------------|-0-----------|-------------|

B|-0-----------|-------------|-0-----------|-------------|-0-----------|-------------|

G|-4-----------|-------------|-6-----------|-------------|-8-----------|-------------|

D|-5-----------|-------------|-7-----------|-------------|-9-----------|-------------|

A|-5-----------|-------------|-7-----------|-------------|-9-----------|-------------|

E|-3-----------|-------------|-5-----------|-------------|-7-----------|-------------|

Guitar 1 (acoustic, strum lightly)

F#|-0---0-0-0-0-|-0---0-0-0-0-|-0---0-0-0-0-|-0---0-0-0-0-|-0---0-0-0-0-|-0-----------|

B|-0---0-0-0-0-|-0---0-0-0-0-|-0---0-0-0-0-|-0---0-0-0-0-|-0---0-0-0-0-|-0-----------|

G|-4---4-4-4-4-|-4---4-4-4-4-|-6---6-6-6-6-|-6---6-6-6-6-|-8---8-8-8-8-|-8-----------|

D|-5---5-5-5-5-|-5---5-5-5-5-|-7---7-7-7-7-|-7---7-7-7-7-|-9---9-9-9-9-|-9-----------|

A|-5---5-5-5-5-|-5---5-5-5-5-|-7---7-7-7-7-|-7---7-7-7-7-|-9---9-9-9-9-|-9-----------|

E|-3---3-3-3-3-|-3---3-3-3-3-|-5---5-5-5-5-|-5---5-5-5-5-|-7---7-7-7-7-|-7-----------|

|Guitar 2 (acoustic) |

F#|-0-----------|-------------|-0-----------|-------------|-0-----------|-------------|

B|-0-----------|-------------|-0-----------|-------------|-0-----------|-------------|

G|-4-----------|-------------|-6-----------|-------------|-8-----------|-------------|

D|-5-----------|-------------|-7-----------|-------------|-9-----------|-------------|

A|-5-----------|-------------|-7-----------|-------------|-9-----------|-------------|

E|-3-----------|-------------|-5-----------|-------------|-7-----------|-------------|

Intro/Verse:

Both Guitar 1 & 2 play the intro riff

Guitar 3 enters:

Guitar 3 (acoustic, strum lightly)

F#|-0---0-0-0-0-|-0---0-0-0-0-|-0---0-0-0-0-|-0---0-0-0-0-|

B|-0---0-0-0-0-|-0---0-0-0-0-|-0---0-0-0-0-|-0---0-0-0-0-|

G|-7---7-7-7-7-|-2---2-2-2-2-|-9---9-9-9-9-|-4---4-4-4-4-|

D|-7---7-7-7-7-|-2---2-2-2-2-|-9---9-9-9-9-|-4---4-4-4-4-| x6

A|-x---x-x-x-x-|-x---x-x-x-x-|-x---x-x-x-x-|-x---x-x-x-x-|

E|-7---7-7-7-7-|-2---2-2-2-2-|-9---9-9-9-9-|-4---4-4-4-4-|

Chorus 2:

Guitars 1 & 2

F#|-0---0-0-0-0-|-0---0-0-0-0-|-0---0-0-0-0-|-0---0-0-0-0-|-0---0-0-0-0-|-0---0-0-0-0-|

B|-0---0-0-0-0-|-0---0-0-0-0-|-0---0-0-0-0-|-0---0-0-0-0-|-0---0-0-0-0-|-0---0-0-0-0-|

G|-4---4-4-4-4-|-4---4-4-4-4-|-6---6-6-6-6-|-6---6-6-6-6-|-8---8-8-8-8-|-8---8-8-8-8-|

D|-5---5-5-5-5-|-5---5-5-5-5-|-7---7-7-7-7-|-7---7-7-7-7-|-9---9-9-9-9-|-9---9-9-9-9-| x3

A|-5---5-5-5-5-|-5---5-5-5-5-|-7---7-7-7-7-|-7---7-7-7-7-|-9---9-9-9-9-|-9---9-9-9-9-|

E|-3---3-3-3-3-|-3---3-3-3-3-|-5---5-5-5-5-|-5---5-5-5-5-|-7---7-7-7-7-|-7---7-7-7-7-|

F#|-0---0-0-0-0-|-0---0-0-0-0-|-0---0-0-0-0-|-0---0-0-0-0-|-0-----------|-------------|

B|-0---0-0-0-0-|-0---0-0-0-0-|-0---0-0-0-0-|-0---0-0-0-0-|-0-----------|-------------|

G|-4---4-4-4-4-|-4---4-4-4-4-|-6---6-6-6-6-|-6---6-6-6-6-|-8-----------|-------------|

D|-5---5-5-5-5-|-5---5-5-5-5-|-7---7-7-7-7-|-7---7-7-7-7-|-9-----------|-------------|

A|-5---5-5-5-5-|-5---5-5-5-5-|-7---7-7-7-7-|-7---7-7-7-7-|-9-----------|-------------|

E|-3---3-3-3-3-|-3---3-3-3-3-|-5---5-5-5-5-|-5---5-5-5-5-|-7-----------|-------------|

Interlude:

Guitar 3 (clean electric):

F#|--0----------|--0----------|-0-----------|-------------|

B|--0----------|--0----------|-0-----------|-------------|

G|-11----------|-10----------|-8-----------|-------------| x6

D|-12----------|-11----------|-9-----------|-------------|

A|-12----------|-11----------|-9-----------|-------------|

E|-10----------|--9----------|-7-----------|-------------|

Third time, Guitars 1 & 2 re-enter:

Guitar 1 (dist. electric):

F#|-------------|-------------|-------------|-------------|

B|-------------|-------------|-------------|-------------|

G|-------------|-------------|-------------|-------------|

D|-------------|-------------|-------------|-------------|

A|-----5b------|-----7b------|-----5b------|-----7b------|

E|-7-------7-5-|-7-------7-5-|-7-------7-5-|-7-------7-5-|

|Guitar 2 (acoustic) | x4

F#|-0---0--0--0--0|-0---0--0--0--0|0--0-0-0-0-|0--0-0-0-0-|

B|-0---0--0--0--0|-0---0--0--0--0|0--0-0-0-0-|0--0-0-0-0-|

G|11--11-11-11-11|10--10-10-10-10|8--8-8-8-8-|8--8-8-8-8-|

D|12--12-12-12-12|11--11-11-11-11|9--9-9-9-9-|9--9-9-9-9-|

A|12--12-12-12-12|11--11-11-11-11|9--9-9-9-9-|9--9-9-9-9-|

E|10--10-10-10-10|-9---9--9--9--9|7--7-7-7-7-|7--7-7-7-7-|

Chorus 3:

Guitar 1 (dist.) repeats the same riff 7 1/2 times (or 15 if you only count 2 measures)

Guitar 2 (acoustic)

F#|-0---0-0-0-0-|-0---0-0-0-0-|-0---0-0-0-0-|-0---0-0-0-0-|

B|-0---0-0-0-0-|-0---0-0-0-0-|-0---0-0-0-0-|-0---0-0-0-0-|

G|-4---4-4-4-4-|-4---4-4-4-4-|-6---6-6-6-6-|-6---6-6-6-6-|

D|-5---5-5-5-5-|-5---5-5-5-5-|-7---7-7-7-7-|-7---7-7-7-7-|

A|-5---5-5-5-5-|-5---5-5-5-5-|-7---7-7-7-7-|-7---7-7-7-7-|

E|-3---3-3-3-3-|-3---3-3-3-3-|-5---5-5-5-5-|-5---5-5-5-5-|

|Guitar 3 (dist. guitar) |

F#|-0-----------|-------------|-0-----------|-------------|

B|-0-----------|-------------|-0-----------|-------------|

G|-4-----------|-------------|-6-----------|-------------|

D|-5-----------|-------------|-7-----------|-------------|

A|-5-----------|-------------|-7-----------|-------------|\\

E|-3-----------|-------------|-5-----------|-------------| \\

\\Repeat

Guitar 2 (acoustic) / x 2

F#|-0---0-0-0-0-|-0---0-0-0-0-|-0---0-0-0-0-|-0---0-0-0-0-| /

B|-0---0-0-0-0-|-0---0-0-0-0-|-0---0-0-0-0-|-0---0-0-0-0-|/

G|-1---1-1-1-1-|-1---1-1-1-1-|-1---1-1-1-1-|-1---1-1-1-1-|

D|-2---2-2-2-2-|-2---2-2-2-2-|-2---2-2-2-2-|-2---2-2-2-2-|

A|-2---2-2-2-2-|-2---2-2-2-2-|-2---2-2-2-2-|-2---2-2-2-2-|

E|-0---0-0-0-0-|-0---0-0-0-0-|-0---0-0-0-0-|-0---0-0-0-0-|

|Guitar 3 (dist. guitar) |

F#|-0-----------|-------------|-0-----------|-------------|

B|-0-----------|-------------|-0-----------|-------------|

G|-1-----------|-------------|-1-----------|-------------|

D|-2-----------|-------------|-2-----------|-------------|

A|-2-----------|-------------|-2-----------|-------------|

E|-0-----------|-------------|-0-----------|-------------|

Guitar 2 (acoustic)

F#|-0---0-0-0-0-|-0---0-0-0-0-|-0---0-0-0-0-|-0---0-0-0-0-|

B|-0---0-0-0-0-|-0---0-0-0-0-|-0---0-0-0-0-|-0---0-0-0-0-|

G|-4---4-4-4-4-|-4---4-4-4-4-|-3---3-3-3-3-|-3---3-3-3-3-|

D|-5---5-5-5-5-|-5---5-5-5-5-|-4---4-4-4-4-|-4---4-4-4-4-|

A|-5---5-5-5-5-|-5---5-5-5-5-|-4---4-4-4-4-|-4---4-4-4-4-|

E|-3---3-3-3-3-|-3---3-3-3-3-|-2---2-2-2-2-|-2---2-2-2-2-|

|Guitar 3 (dist. guitar) |

F#|-0-----------|-------------|-0-----------|-------------|

B|-0-----------|-------------|-0-----------|-------------|

G|-4-----------|-------------|-3-----------|-------------|

D|-5-----------|-------------|-4-----------|-------------|

A|-5-----------|-------------|-4-----------|-------------|

E|-3-----------|-------------|-2-----------|-------------|

Guitar 2 (acoustic)

F#|-0--0-0-0-0|-0--0-0-0-0|-0---0--0--0--0|-0---0--0--0--0|

B|-0--0-0-0-0|-0--0-0-0-0|-0---0--0--0--0|-0---0--0--0--0|

G|-1--1-1-1-1|-1--1-1-1-1|11--11-11-11-11|11--11-11-11-11|

D|-2--2-2-2-2|-2--2-2-2-2|12--12-12-12-12|12--12-12-12-12|

A|-2--2-2-2-2|-2--2-2-2-2|12--12-12-12-12|12--12-12-12-12|

E|-0--0-0-0-0|-0--0-0-0-0|10--10-10-10-10|10--10-10-10-10|

|Guitar 3 (dist. guitar) |

F#|-0-----------|-------------|-0-----------|-------------|

B|-0-----------|-------------|-0-----------|-------------|

G|-1-----------|-------------|-1-----------|-------------|

D|-2-----------|-------------|-2-----------|-------------|

A|-2-----------|-------------|-2-----------|-------------|

E|-0-----------|-------------|-0-----------|-------------|

Guitar 2 (acoustic)

F#|-0---0--0--0--0|-0---0--0--0--0|-0---0--0--0--0|-0---0--0--0--0|

B|-0---0--0--0--0|-0---0--0--0--0|-0---0--0--0--0|-0---0--0--0--0|

G|10--10-10-10-10|10--10-10-10-10|-9---9--9--9--9|-9---9--9--9--9|

D|11--11-11-11-11|11--11-11-11-11|10--10-10-10-10|10--10-10-10-10|

A|11--11-11-11-11|11--11-11-11-11|10--10-10-10-10|10--10-10-10-10|

E|-9---9--9--9--9|-9---9--9--9--9|-8---8--8--8--8|-8---8--8--8--8|

|Guitar 3 (dist. guitar) |

F#|-0-------------|---------------|-0-------------|---------------|

B|-0-------------|---------------|-0-------------|---------------|

G|10-------------|---------------|-9-------------|---------------|

D|11-------------|---------------|10-------------|---------------|

A|11-------------|---------------|10-------------|---------------|

E|-9-------------|---------------|-8-------------|---------------|

Guitar 2 (acoustic)

F#|-0---0--0--0--0|-0---0--0--0--0|

B|-0---0--0--0--0|-0---0--0--0--0|

G|-9---9--9--9--9|-9---9--9--9--9|

D|10--10-10-10-10|10--10-10-10-10|

A|10--10-10-10-10|10--10-10-10-10|

E|-8---8--8--8--8|-8---8--8--8--8|

|Guitar 3 (dist. guitar) |

F#|-0-------------|---------------|

B|-0-------------|---------------|

G|-9-------------|---------------|

D|10-------------|---------------|

A|10-------------|---------------|

E|-8-------------|---------------|

Bridge:

Guitar 2 & 3 do the same as each other until the end.

For Guitar 1, I'm not sure if it's octave power chords, an octavia pedal, or just 2

guitars, but the sound is written.

Guitar 2 & 3 (dist. guitars)

F#|-0---0-0-0-0-|-0---0-0-0-0-|-0---0-0-0-0-|-0---0-0-0-0-|

B|-0---0-0-0-0-|-0---0-0-0-0-|-0---0-0-0-0-|-0---0-0-0-0-|

G|-8---8-8-8-8-|-8---8-8-8-8-|-8---8-8-8-8-|-8---8-8-8-8-|

D|-9---9-9-9-9-|-9---9-9-9-9-|-9---9-9-9-9-|-9---9-9-9-9-|

A|-9---9-9-9-9-|-9---9-9-9-9-|-9---9-9-9-9-|-9---9-9-9-9-|

E|-7---7-7-7-7-|-7---7-7-7-7-|-7---7-7-7-7-|-7---7-7-7-7-|

|Guitar 1 (dist. guitar) |

F#|-------------|-------------|-------------|-------------|

B|-------------|-------------|-------------|-------------|

G|-----7b------|-----9b------|-----7b------|-----9b------|

D|-9-------9-7-|-9-------9-7-|-9-------9-7-|-9-------9-7-|

A|-----5b------|-----7b------|-----5b------|-----7b------|\\

E|-7-------7-5-|-7-------7-5-|-7-------7-5-|-7-------7-5-| \\

Repeat x4

F#|-0---0-0-0-0-|-0---0-0-0-0-|-0---0-0-0-0-|-0---0-0-0-0-| /

B|-0---0-0-0-0-|-0---0-0-0-0-|-0---0-0-0-0-|-0---0-0-0-0-|/

G|-1---1-1-1-1-|-1---1-1-1-1-|-1---1-1-1-1-|-1---1-1-1-1-|

D|-2---2-2-2-2-|-2---2-2-2-2-|-2---2-2-2-2-|-2---2-2-2-2-|

A|-2---2-2-2-2-|-2---2-2-2-2-|-2---2-2-2-2-|-2---2-2-2-2-|

E|-0---0-0-0-0-|-0---0-0-0-0-|-0---0-0-0-0-|-0---0-0-0-0-|

| |

F#|-------------|-------------|-------------|-------------|

B|-------------|-------------|-------------|-------------|

G|-----7b------|-----9b------|-----7b------|-----9b------|

D|-9-------9-7-|-9-------9-7-|-9-------9-7-|-9-------9-7-|

A|-----5b------|-----7b------|-----5b------|-----7b------|

E|-7-------7-5-|-7-------7-5-|-7-------7-5-|-7-------7-5-|

Chorus 4:

Guitar 2 & 3

F#|-0---0-0-0-0-|-0---0-0-0-0-|-0---0-0-0-0-|-0---0-0-0-0-|

B|-0---0-0-0-0-|-0---0-0-0-0-|-0---0-0-0-0-|-0---0-0-0-0-|

G|-4---4-4-4-4-|-4---4-4-4-4-|-6---6-6-6-6-|-6---6-6-6-6-|

D|-5---5-5-5-5-|-5---5-5-5-5-|-7---7-7-7-7-|-7---7-7-7-7-|

A|-5---5-5-5-5-|-5---5-5-5-5-|-7---7-7-7-7-|-7---7-7-7-7-|

E|-3---3-3-3-3-|-3---3-3-3-3-|-5---5-5-5-5-|-5---5-5-5-5-|

|Guitar 1 |

F#|-------------|-------------|-------------|-------------|

B|-------------|-------------|-------------|-------------|

G|-7---6---4---|-------------|-7---6---4---|-------------|

D|-------------|-7---5---4---|-------------|-7---5---4---|

A|-5---4---2---|-------------|-5---4---2---|-------------|\\

E|-------------|-5---3---2---|-------------|-5---3---2---| \\

\\Repeat

Guitar 2 (acoustic) / x 2

F#|-0---0-0-0-0-|-0---0-0-0-0-|-0---0-0-0-0-|-0---0-0-0-0-| /

B|-0---0-0-0-0-|-0---0-0-0-0-|-0---0-0-0-0-|-0---0-0-0-0-|/

G|-1---1-1-1-1-|-1---1-1-1-1-|-1---1-1-1-1-|-1---1-1-1-1-|

D|-2---2-2-2-2-|-2---2-2-2-2-|-2---2-2-2-2-|-2---2-2-2-2-|

A|-2---2-2-2-2-|-2---2-2-2-2-|-2---2-2-2-2-|-2---2-2-2-2-|

E|-0---0-0-0-0-|-0---0-0-0-0-|-0---0-0-0-0-|-0---0-0-0-0-|

|Guitar 3 (dist. guitar) |

F#|-------------|-------------|-------------|-------------|

B|-------------|-------------|-------------|-------------|

G|-----7b------|-----9b------|-----7b------|-----9b------|

D|-9-------9-7-|-9-------9-7-|-9-------9-7-|-9-------9-7-|

A|-----5b------|-----7b------|-----5b------|-----7b------|

E|-7-------7-5-|-7-------7-5-|-7-------7-5-|-7-------7-5-|

Outro:

F#|-0---0-0-0-0-|-0---0-0-0-0-|-0---0-0-0-0-|-0---0-0-0-0-|

B|-0---0-0-0-0-|-0---0-0-0-0-|-0---0-0-0-0-|-0---0-0-0-0-|

G|-4---4-4-4-4-|-4---4-4-4-4-|-3---3-3-3-3-|-3---3-3-3-3-|

D|-5---5-5-5-5-|-5---5-5-5-5-|-4---4-4-4-4-|-4---4-4-4-4-|

A|-5---5-5-5-5-|-5---5-5-5-5-|-4---4-4-4-4-|-4---4-4-4-4-|

E|-3---3-3-3-3-|-3---3-3-3-3-|-2---2-2-2-2-|-2---2-2-2-2-|

| |

F#|-------------|-------------|-------------|-------------|

B|-------------|-------------|-------------|-------------|

G|-----7b------|-----7b------|-----7b------|-----9b------|

D|-9-------9-7-|-9-------9-7-|-9-------9-7-|-9-------9-7-|

A|-----5b------|-----5b------|-----5b------|-----7b------|

E|-7-------7-5-|-7-------7-5-|-7-------7-5-|-7-------7-5-|

F#|-0--0-0-0-0|-0--0-0-0-0|-0---0--0--0--0|-0---0--0--0--0|

B|-0--0-0-0-0|-0--0-0-0-0|-0---0--0--0--0|-0---0--0--0--0|

G|-1--1-1-1-1|-1--1-1-1-1|11--11-11-11-11|11--11-11-11-11|

D|-2--2-2-2-2|-2--2-2-2-2|12--12-12-12-12|12--12-12-12-12|

A|-2--2-2-2-2|-2--2-2-2-2|12--12-12-12-12|12--12-12-12-12|

E|-0--0-0-0-0|-0--0-0-0-0|10--10-10-10-10|10--10-10-10-10|

| |

F#|-------------|-------------|-------------|-------------|

B|-------------|-------------|-------------|-------------|

G|-----7b------|-----7b------|-----7b------|-----9b------|

D|-9-------9-7-|-9-------9-7-|-9-------9-7-|-9-------9-7-|

A|-----5b------|-----5b------|-----5b------|-----7b------|

E|-7-------7-5-|-7-------7-5-|-7-------7-5-|-7-------7-5-|

F#|-0---0--0--0--0|-0---0--0--0--0|-0--0--0--0--0--|-0--0--0--0--0--|

B|-0---0--0--0--0|-0---0--0--0--0|-0--0--0--0--0--|-0--0--0--0--0--|

G|10--10-10-10-10|10--10-10-10-10|-9--9--9--9--9--|-9--9--9--9--9--|

D|11--11-11-11-11|11--11-11-11-11|10-10-10-10-10--|10-10-10-10-10--|

A|11--11-11-11-11|11--11-11-11-11|10-10-10-10-10--|10-10-10-10-10--|

E|-9---9--9--9--9|-9---9--9--9--9|-8--8--8--8--8--|-8--8--8--8--8--|

| |

F#|---------------|---------------|----------------|----------------|

B|---------------|---------------|----------------|----------------|

G|------7b-------|------9b-------|-5--5--5--5--5--|-7--7--7--7--7--|

D|-9---------9-7-|-9---------9-7-|----------------|----------------|

A|------5b-------|------7b-------|-3--3--3--3--3--|-5--5--5--5--5--|

E|-7---------7-5-|-7---------7-5-|----------------|----------------|

F#|-0--0--0--0--0--|-0--0--0--0--0--|-0--0--0--0--0--|-0--0--0--0--0--|

B|-0--0--0--0--0--|-0--0--0--0--0--|-0--0--0--0--0--|-0--0--0--0--0--|

G|-9--9--9--9--9--|-9--9--9--9--9--|-9--9--9--9--9--|-9--9--9--9--9--|

D|10-10-10-10-10--|10-10-10-10-10--|10-10-10-10-10--|10-10-10-10-10--|

A|10-10-10-10-10--|10-10-10-10-10--|10-10-10-10-10--|10-10-10-10-10--|

E|-8--8--8--8--8--|-8--8--8--8--8--|-8--8--8--8--8--|-8--8--8--8--8--|

| |

F#|----------------|----------------|----------------|----------------|

B|----------------|----------------|----------------|----------------|

G|-9--9--9--9--9--|11-11-11-11-11--|12-12-12-12-12--|14-14-14-14-14--|

D|----------------|----------------|----------------|----------------|

A|-7--7--7--7--7--|-9--9--9--9--9--|10-10-10-10-10--|12-12-12-12-12--|

E|----------------|----------------|----------------|----------------|

F#|-0--0--0--0--0--|-0--0--0--0--0--|-0--------------|----------------|

B|-0--0--0--0--0--|-0--0--0--0--0--|-0--------------|----------------|

G|-9--9--9--9--9--|-9--9--9--9--9--|-8--------------|----------------|

D|10-10-10-10-10--|10-10-10-10-10--|-9--------------|----------------|

A|10-10-10-10-10--|10-10-10-10-10--|-9--------------|----------------|

E|-8--8--8--8--8--|-8--8--8--8--8--|-7--------------|----------------|

| |

F#|----------------|----------------|----------------|----------------|

B|----------------|----------------|----------------|----------------|

G|12-12-12-12-12--|14-14-14-14-14--|-16-------------|----------------|

D|----------------|----------------|----------------|----------------|

A|10-10-10-10-10--|12-12-12-12-12--|-14-------------|----------------|

E|----------------|----------------|----------------|----------------|

| / slide up

| \\ slide down

| h hammer-on

| p pull-off

| ~ vibrato

| + harmonic

| x Mute note

===============================================================================Added by tabs-database.com and our distinguished partners

Get this song at:  amazon.com sheetmusicplus.com

Share your thoughts

0 Comments found