Flaming Lips

Flaming Lips - Ego Tripping At The Gates Of Hell guitar tab

"Ego Tripping At The Gates Of Hell"

The Flaming Lips

from "Yoshimi Battles The Pink Robots"

tabbed by arlen b, 05/13/03

website: http://www.geocities.com/kingoftheeskimos

standard tuning

chords used:

Bb F C Dm/F Bbmaj7 Gm Dm Bbm Eb Am

e--1----1----0----1----1----3----1----1----6----0----------------------

B--3----1----1----3----3----3----3----2----8----1----------------------

G--3----2----0----2----2----3----2----3----8----2----------------------

D--3----3----2----3----3----5----0----3----8----2----------------------

A--1----3----3---------1----5---------1----6----0----------------------

E-------1-------------------3------------------------------------------

track begins with bass:

G----------------------------------------------------------------------

D-0-3-3-3-0-5--0-3-3-3-0-7--0-3-3-3-0-5--0-3-3-3-0-7-------------------

A----------------------------------------------------------------------

E----------------------------------------------------------------------

then a guitar strikes a Bb chord over:

G----------------------------------------------------------------------

D-0-8-8-8-0-7--0-5-5-5-0-7--0-8-8-8-0-7--0-5-5-5-0-7-7--5-7-5-3-5------

A----------------------------------------------------------------------

E----------------------------------------------------------------------

F C Dm/F C F C Dm/F C

I was waiting on a moment / but the moment never came

Bb Bbmaj7 Gm C F C Dm/F C

All the billion other moments / were just slipping all away

F C Dm C

I must have been trippin' (were just slipping all away)

F C Dm C

Just ego trippin' (were just slipping all away)

I was wanting you to love me / but your love it never came

All the other love around me / was just wasting all away

I must have been tripping

Just ego tripping

Bbm Eb Bbm C

Just ego trippin'

F C Dm/F C

I was waiting on a moment

Dm Am Gm Bb C

But the moment never came

Get this song at:  amazon.com sheetmusicplus.com

Share your thoughts

0 Comments found