Felons

Felons - Hateful Lovesong bass tab

-------------------------------------------------------------------------------

     Hateful Lovesong - The Felons

-------------------------------------------------------------------------------

By:Josh(felonsbassplayer@aol.com)

  Intro and Verses

G|------------------------------------|

D|----7h9p7-----7-5-7-----------------|

A|7-7--------3--------------5h7-5-5-5-|

E|--------------------3-3-3-----------|

  Chorus

G|---------------------------------|

D|-2-2-2-4---------5-5-5-7---------|

A|---------3-3-3-5---------5-5-5-7-|

E|---------------------------------|

  During Guitar Solo Play-

G|-----------------------------------|

D|----5-7-------7-5------------------|

A|5-7------5-5----------3-3--5-5-----|

E|------------------3-3----------7-5-|

That's it!  Any comments, questions or concerns; e-mail me.  And visit our site at

http://www.homepagez.com/guitar2/wy/TheFelons.htm

===============================================================================

Get this song at:  amazon.com sheetmusicplus.com

Share your thoughts

0 Comments found