Failure

Failure - Wonderful Life guitar tab

Wonderful Life

by: Failure

Transcribed by:Nervouslowly8@aol.com

Tuning 1/2 Step Down

Intro Riff 4 times

Eb----------------------------------------------------------15----15----15-

Bb----12----12----12----15----15----15----12----12----12-------------------

Gb-14----14----14----14----14----14----14----14----14----14----14----14----

Db-------------------------------------------------------------------------

Ab-------------------------------------------------------------------------

Eb-------------------------------------------------------------------------

Verse 4 times

Eb--------------------------------------------------------------------

Bb--------------------------------------------------------------------

Gb-7-7-7-7-7-7-7-7--7-7-7-7-7-7-7-7--9-9-9-9-9-9-9-9------------------

Db-7-7-7-7-7-7-7-7--7-7-7-7-7-7-7-7--9-9-9-9-9-9-9-9--7-7-7-7-7-7-7-5-

Ab-5-5-5-5-5-5-5-5--5-5-5-5-5-5-5-5--7-7-7-7-7-7-7-7--7-7-7-7-7-7-7-5-

Eb----------------------------------------------------5-5-5-5-5-5-5-3-

< p.m.> < p.m.> < p.m.>

Chorus 4 times

Eb-----------------------------------------------------------------

Bb-----------------------------------------------------------------

Gb-----------------------------------------------------------------

Db-8-8-8-8-8-8-8-8-7-7-7-7-7-7-7-7-5-5-5-5-5-5-5-5-3-3-3-3-3-3-3-3-

Ab-8-8-8-8-8-8-8-8-7-7-7-7-7-7-7-7-5-5-5-5-5-5-5-5-3-3-3-3-3-3-3-3-

Eb-6-6-6-6-6-6-6-6-5-5-5-5-5-5-5-5-3-3-3-3-3-3-3-3-1-1-1-1-1-1-1-1-

p.m throughout

Verse 4x

Chorus 4x

Riff 4

" Sleep in the softest bed"

Eb-------------------

Bb-------------------

Gb-------------------

Db-4-4-4-4-4-4-2-2-2-

Ab-4-4-4-4-4-4-2-2-2-

Eb-2-2-2-2-2-2-0-0-0- 4x

For the next part alternate between

the chorus and intro parts 3x

Verse 4x

Riff 4 8x

End bass plays the chorus riff till the end

Eb---------------- Eb----------------------

Bb---------------- Bb----------------------

Gb---------------- Gb-------14~--------10~-

Db-----7~------3~- Db----12---------12-----

Ab---5-------5---- Ab-13---------10--------

Eb-6-------3------ 4x then Eb---------------------- 4x

Get this song at:  amazon.com sheetmusicplus.com

Share your thoughts

0 Comments found