Failure

Failure - Small Crimes guitar tab

Small Crimes

by Failure

tuned down 1/2 step

tabbed by me957@aol.com

bass- mega-distorted

I heard somewhere once that greg uses a big muff distorion

pedal for bass.....

g------------------------------------

d-4--4-4-4----------3--3-3-3--5-5--5-

a-2--2-2-2--3-3--3--1--1-1-1--3-3--3-

e-----------1-1--1-------------------

guitar- clean flanger

e------------------------7-------------

b-----5----------5-----------5-------5-

g-7----------7-------7-----------7-----

d--------------------------------------

a--------------------------------------

e--------------------------------------

e------------------------8-------------

b-----5----------5-----------5-------5-

g-7--------- 7-------7-----------7-----

d--------------------------------------

a--------------------------------------

e--------------------------------------

bass-

g-1------------------0--1--0---1--0--1---------------

d-----2---------2----------------------------2-------

a-----------4----------------------------4-------3~~-

e----------------------------------------------------

guitar- clean with flanger

e-------------------------------------------------------

b-----0-----0-----------0-----0-----0------0-----0------

g---6-----6-----6-----6-----6-----6------5-----5------5-

d-6-----6-----6-----5-----5-----5------5-----5------5---

a-------------------------------------------------------

e-------------------------------------------------------

when distorted guitar kicks in

e-----0--0-0-0--0-0--0-0--0-------0--0-0-0-0----------------------

b-x-x-0--0-0-0--0-0--0-0--0-------0--0-0-0-0----------------------

g-x-x-5--5-5-5--5-5--5-5--5-6--6--6--6-6-6-6----------------------

d-x-x-5--5-5-5--5-5--5-5--5-6--6--6--6-6-6-6---4-4-4-4--4-4-4-4--4-

a-x-x-3--3-3-3--3-3--3-3--3-4--4--4--4-4-4-4---4-4-4-4--4-4-4-4--4-

e----------------------------------------------2-2-2-2--2-2-2-2--2-

---^ bass plays this too, but just the power chords (of course)

At the end later in the song, the guitar plays the intro bass riff along

with the bass

- Marcus

Get this song at:  amazon.com sheetmusicplus.com

Share your thoughts

0 Comments found