Face to Face

Face to Face - Youve Got A Problem guitar tab

-----------------------------------------------------------------------------

You've got a problem - Face to Face

-----------------------------------------------------------------------------

Tabbed by: jd

Email: j_________d@hotmail.com (9underscores)

Tuning: standard

intro

e|--------------------|

B|--------------------|

G|-9---9--11-9--------|

D|---9---------9------|

A|--------------------|

E|--------------------|

verse

e|--------------------------------|

B|--------------------------------|

G|-6--2-----4--6--2-----4---------|

D|-6--2--2--4--6--2--2--4--6------|

A|-4--0--2--2--4--0--2--2--6------|

E|-------0-----------0-----4------|

pre chorus

e|------------------------------------------------|

B|--(repeat 2x)--------(3rd time, play this)-----|

G|-6--4-6--9-6-4-------6--4-6--9-6-4-2----11------|

D|-6--4-6--9-6-4-6-----6--4-6--9-6-4-2----11------|

A|-4--2-4--7-4-2-6-----4--2-4--7-4-2-0----9-------|

E|---------------4--------------------------------|

chorus

e|-----------------------------------------------------------|

B|-----------------------------------------------------------|

G|-----------------------------------------------------------|

D|-9----14----11----14----13-14-13-11--9---------------------|

A|-7----12----9-----12----11-12-11-9---7---------------------|

E|-----------------------------------------------------------|

life... life...

repeat verse

repeat pre chorus

repeat chorus

repeat intro 4x

solo

e|--------------------------------------------------------------------------|

B|--------------------------------------------------------------------------|

G|-9--11--13--11--9-9-9-9-9-11--13--11--9-9-9-9-9-13-14-16--14-13--14-13-11-|

D|--------------------------------------------------------------------------|

A|--------------------------------------------------------------------------|

E|--------------------------------------------------------------------------|

solo con't

e|--------repeat 3x, on 3rd time don't hit last note on 16th fret-----|

B|--------------------------------------------------------------------|

G|-16-(double pick note)--16-14-13--11-13-14-16-----------------------|

D|--------------------------------------------------------------------|

A|--------------------------------------------------------------------|

E|--------------------------------------------------------------------|

e|-exit solo on these notes---|

B|----------------------------|

G|----------------------------|

D|-14-----11------------------|

A|-12-----9-------------------|

E|----------------------------|

repeat chorus over and over until song ends. enjoy!

| / slide up

| slide down

| h hammer-on

| p pull-off

| ~ vibrato

| + harmonic

| x Mute note

=============================================================================

Get this song at:  amazon.com sheetmusicplus.com

Share your thoughts

0 Comments found