Face to Face

Face to Face - Youve Done Nothing bass tab

song: You`ve Done Nothing

band: face to face

Album:Don't Turn Away

tabbed by Dominik W.(dominik@users.basstabarchive.com)

Riff1: 2x

G|----------------------------------------------------------|

D|----------------------------------------------------------|

A|-0>--0>--5-12-10-9-7-5-5-12-10-9-7-5-0>--0>---5>--0>--0>--|

E|---0-----------------------------------0---0>-------0---0-|

after 2. time

G|-------|

D|-------|

A|-7>--5-|

E|-------|

Riff2: 4x

G|--------------------------------|

D|--------------------------------|

A|------7>------5>------7>------5-|

E|-5>------7>------5>------7>-----|

"You got brains in your head"

Riff3: x8

G|-----------------|

D|-----------------|

A|------7>------5>-|

E|-5>------7>------|

Riff4: x2|ending:

G|----------------|--------------------------------|

D|----------------|--------------------------------|

A|-5-12-10-9-7-5-5|--0>--0>--7>--5>--0>--0>--7>--5-|

E|----------------|----0---------------0-----------|

bridge 3x

That's it!

Get this song at:  amazon.com sheetmusicplus.com

Share your thoughts

0 Comments found