Face to Face

Face to Face - You couldve had everything guitar tab

-------------------------------------------------------------------------------

YOU COULD'VE HAD EVERYTHING - face to face

-------------------------------------------------------------------------------

By: Ass

theres only 2 different rythyms

intro

e|---------------------------------------------------------------------------|

B|---------------------------------------------------------------------------|

G|----7----------------------------------------------------------------------|

D|-7--7--4--2----------------------------------------------------------------|

A|-7--5--4--2----------------------------------------------------------------|

E|-5-----2--0----------------------------------------------------------------|

verse

e|---------------------------------------------------------------------------|

B|---------------------------------------------------------------------------|

G|-7--9----------------------------------------------------------------------|

D|-7--9--7--4----------------------------------------------------------------|

A|-5--7--7--4----------------------------------------------------------------|

E|-------5--2----------------------------------------------------------------|

end bit

e|---------------------------------------------------------------------------|

B|---------------------------------------------------------------------------|

G|-7--9----------7-----------------------------------------------------------|

D|-7--9--7--4--2-7-7---------------------------------------------------------|

A|-5--7--7--4--2-5-7---------------------------------------------------------|

E|-------5--2--0---5---------------------------------------------------------|

rythyms are just like every other punk song. easy

rock on

Get this song at:  amazon.com sheetmusicplus.com

Share your thoughts

0 Comments found