Face to Face

Face to Face - You couldve had everything bass tab

Date: Fri, 5 Sep 2003 20:58:54 -0700 (PDT)

From: TJ Roberts

Subject: f/face_to_face/you_couldve_had_everything.btab

Band: Face to Face

Album:Reactionary

Song: You Could've Had Everything

Tab by: T.J. Roberts

Very rockin' track where Scott augments an otherwise simple chorus

The song starts right off with the first verse (no intro)

* / is a slide-up

* \ is a slide-down

Verses

"Ignorance and arrogance are quite the same to me..."

"I find little entertains me anymore..."

"Get in your self-assuredness and take it for a spin..."

G-----------------------------------------------------------------------

D-----------------------------------------------------------------------

A-----5---------------5---------------/77777777-------------------------

E-5-------2---0---5-------2---0-000000----------------------------------

Chorus

"You could've had everything but you..."

G-----------------------------------------------------------------------

D-----------------------------------------------4466-776644-------------

A-5--5554567-777774-------------------5544----77----77------77\----22/77

E-------------------5--5557502-222222-----7755-----------------2244-----

"...why shouldn't it break your heart in two?"

G-------------------------

D-------------------------

A-5--5554567-777777-------

E-------------------------

Guitar Solo

***just support the guitar by playing the verse part

***also, you are in charge of back-up vocals (whoas) during second half of chorus.

That's it my little bass padawans...

Get this song at:  amazon.com sheetmusicplus.com

Share your thoughts

0 Comments found