Face to Face

Face to Face - Whats In A Name guitar tab

-------------------------------------------------------------------------------

WHAT'S IN A NAME - Face To Face

-------------------------------------------------------------------------------

Tabbed By: Matthew Beers [MCB52@yahoo.com]

CHORDS:

--B---G#--A---E----F#--C#---E*----F#* [*high]

|------------------0---------------------------|

|----------2----0------------------------------|

|-3--------2----1----------6----9--------------|

|-3---6----2----2-----4----6----9------11------|

|-2---6----0----2-----4----4----7------11------|

|-----4---------0-----2-----------------9------|

[ BASS INTRO ]

[VERSE]

B

Open-minded educated

G# A

Popular and Medicated now

E

And you still won't make it

B

Filled with silent indignation

G# A

Blind with hopeless expectation now

E

And you still won't make it

[PRE-CHORUS]

F# A

So you're afriad that they will think ill of you

E B

Get a load of me now

F# A

And if you're scared they couldn't care less of you

E B

Get over yourself now

[CHORUS]

B A C# E*

It's fame and popularity

A E B F#*

I'll never understand

B A C# E*

If it feels like this is what you need

A E B F#*

You'll never understand

[VERSE]

[PRE-CHORUS]

[CHORUS]

[BASS INTRO - Play F#*]

[PRE-CHORUS]

[CHORUS]

[ENDING]

B

Open-minded educated

G# A E

Popular and Medicated now

*****************************************

MxPx Tab Headquarters!

http://members.xoom.com/mcb52/

*****************************************

=============================================================================

Get this song at:  amazon.com sheetmusicplus.com

Share your thoughts

0 Comments found