Face to Face

Face to Face - Walk The Walk guitar tab

Artist: Face to Face

Song: Walk the Walk

Tabbed by: p_irving

Very easy song, very basic.

Intro. Palm Muted

e|--------------------------------------------------------------------|

B|--------------------------------------------------------------------|

G|--55555555555555----------------------------------------------------|

D|--55555555555555--555555555555555--88888888888888--33333333333333---|

A|--33333333333333--555555555555555--88888888888888--33333333333333---|

E|------------------333333333333333--66666666666666--11111111111111---|

Verse

e|---------------------------------------------------------------------|x2

B|---------------------------------------------------------------------|

G|--5-5555555555555----------------------------------------------------|

D|--5-5555555555555-5-55555555555555-8-8888888888888-3-3333333333333---|

A|--3-3333333333333-5-55555555555555-8-8888888888888-3-3333333333333---|

E|------------------3-33333333333333-6-6666666666666-1-1111111111111---|

e|----------------------------|--------------------|

B|--555555555555555555555555--|--------------------|

G|--333333333333333333333333--|--------------------|

D|----------------------------|--3-33333333333333--|

A|----------------------------|--3-33333333333333--|

E|----------------------------|--1-11111111111111--|

************************

Chorus.

e|----------------------------------|x2

B|----------------------------------|

G|--------------------5-5555555555--|

D|--5-55555--3-33333--5-5555555555--|

A|--5-55555--3-33333--3-3333333333--|

E|--3-33333--1-11111----------------|

e|----------------------------------------------------------------------|

B|----------------------------------------------------------------------|

G|----------------------------------------------------------------------|

D|--5-55555--3-33333--5-55555--3-33333--5-55555--3-33333333-3-33333333--|

A|--5-55555--3-33333--5-55555--3-33333--5-55555--3-33333333-3-33333333--|

E|--3-33333--1-11111--3-33333--1-11111--3-33333--1-11111111-1-11111111--|

******** ********

Let this note ring

e|------|

B|--5~--|

G|--3~--|

D|------|

A|------|

E|------|

Song Ends on the note above.

Thats it i think, it sound good enough for me. This a good learning song and

its also fun to play cause its so easy and fast!

Tabbed by: p_irving

Added by tabs-database.com and our distinguished partners

Get this song at:  amazon.com sheetmusicplus.com

Share your thoughts

0 Comments found