Face to Face

Face to Face - Walk The Walk bass tab

Walk the Walk - Face to Face

Potking

Intro

G-------------------------------

D----5---3-2---5---3-5-----------

A-333--33-3--33--33-------------

E-------------------------------

then

G-------------------

D----5--3-2--3-5----

A-------------------

E-333-33-3-33-------

then

G-----------------------------

D-----------------------------

A----7---6--5----5-7----------

E-666--66--6--66--------------

then

G--------------------------

D----3--2---2----2----2----

A--------------------------

E-111-11--0----0----0------

Repeat all of that I think 4 times and then it gets into the verse and chorus

I think this is the verse

G-----------------

D-----------------

A-----------1>---- Repeat a bunch of times.

E--1>---3>--------

Chorus

G-------------------

D-------------------

A-----3>------1>---- This is 100% correct

E-3>------1>--------

There are some other parts in the song but I haven't figured it out yet.

Get this song at:  amazon.com sheetmusicplus.com

Share your thoughts

0 Comments found