Face to Face

Face to Face - Think For Yourself guitar tab

THINK FOR YOURSELF - Face To Face

Album: Reactionary

Tuning: Standard

~ = Vibrato

Intro + Main Riff

e|---------------------------------------------------------------------------|

B|---------------------------------------------------------------------------|

G|----7-----9--7-----7--4--6-------------------------------------------------|

D|-4--7--4--9--7--4--7--4--6-------------------------------------------------|

A|-4--5--4--7--5--4--5--2--4-------------------------------------------------|

E|-2-----2--------2----------------------------------------------------------|

Riff A, 0.24 + several other times

e|---------------------------------------------------------------------------|

B|---------------------------------------------------------------------------|

G|-7-----4---7-----9---------------------------------------------------------|

D|-7--7--4---7--4--9---------------------------------------------------------|

A|-5--7--2---5--4--7---------------------------------------------------------|

E|----5---------2------------------------------------------------------------|

This F# is hit a couple of times around the 2.00 mark...

e|---------------------------------------------------------------------------|

B|---------------------------------------------------------------------------|

G|---------------------------------------------------------------------------|

D|-4-------------------------------------------------------------------------|

A|-4-------------------------------------------------------------------------|

E|-2-------------------------------------------------------------------------|

...followed by this at 2.01

e|---------------------------------------------------------------------------|

B|---------------------------------------------------------------------------|

G|---------------------------------------------------------------------------|

D|--/14-12~---14-11~---------------------------------------------------------|

A|---------------------12-14~------------------------------------------------|

E|---------------------------------------------------------------------------|

finally, 2.09. these notes are tremelo picked.

e|---------------------------------------------------------------------------|

B|---------------------------------------------------------------------------|

G|-11--13--14--13--14--16----------------------------------------------------|

D|---------------------------------------------------------------------------|

A|---------------------------------------------------------------------------|

E|---------------------------------------------------------------------------|

And that's about it.

-------------------------------------------------------------------------------

Get this song at:  amazon.com sheetmusicplus.com

Share your thoughts

0 Comments found