Face to Face

Face to Face - Telling Them guitar tab

-------------------------------------------------------------------------------

TELLING THEM - Face to Face

-------------------------------------------------------------------------------

By:cooper

MAIN RIFF:

e|-------------------------------------repeat this a heap of times-----------|

B|---------------------------------------------------------------------------|

G|---------------------------------------------------------------------------|

D|--2---------------7--------------------------------------------------------|

A|--2-------5-------5--------7-----------------------------------------------|

E|--0-------3----------------5-----------------------------------------------|

CHORUS:

e|---------------------------------------------------------------------------|

B|---------------------------------------------------------------------------|

G|---------------------------------------------------------------------------|

D|--9-----7---5--4-----------------------------------------------------------|

A|--7-----5---3--2-----------------------------------------------------------|

E|---------------------------------------------------------------------------|

This is really easy just listen to the song to work out the rythem.

===============================================================================

Get this song at:  amazon.com sheetmusicplus.com

Share your thoughts

0 Comments found