Face to Face

Face to Face - Take it back bass tab

Song Title: take it back

Artist: face to face

----------------------------------------------

the first part CUNT!

it is real easy!

----------------------------------

--------------------------------- REPEAT AWHOLE BUNCH O'TIMES!

----------------0 0 0 0 5-5-5-5--

5-5-5-5-2-2-2-2----------------

the second is easy too!

-----------------------------------------------------

------------------------------------77h-9-7-----------

----5-5-5-5----7-7-7-7----9-9-9-9-------------8------- repeat as many times at it needs

------------------------------------------------------ usuallt 2 times

------------------------------------------------------------

---------------------------------------------------------------

---7-7-7-7-7-7-7-7-9-9-9-9-9-9-9-9-7-7-7-7-7-7-7-7-9-9-9-9-9-9-9-9--

-----------------------------------------------------------------

---------------------------------------------------------------------

----------------------------------------------------------------------

----5-5-5-5-5-5-5-5-7-7-7-7-7-7-7-7-5-5-5-5-5-5-5-5-7-7-7-7-7-7-7-7---

----------------------------------------------------------------------

one time the first time and 2 times the next times ok

e-mail alvin vicious at osteve@direct.ca ifu like me or just want to do somethin

face to face kicks butt i will submit some STRUNG OUT NEXT TIME though

Submitted by: alvin vicious! (osteve@direct.ca)

Get this song at:  amazon.com sheetmusicplus.com

Share your thoughts

0 Comments found