Face to Face

Face to Face - So Long bass tab

intro

G|----9--7--6---9--7--6---9--7--6----9--7--6---9/119---7--6----9--7--6-6----|

D|---0--0--0--0-------------------------------------0--0--0--0---------------|

A|-------------7--7--7-7/9--9--9--9-0--0--0--0-----------------7--7--7-7-----|

E|---------------------------------------------------------------------------|

Intro #2 (2x)

G|------------------------------|

D|------------------------------|

A|-----7----5>4>--12>11>--------|

E|-5>--0>-----------------------|

Verse (does your consience still say...)

G|-----------------------------------------------|

D|-----------------------------------------------|

A|-5>--7>----------5>--7>------------------------|

E|-----0>--5>--2>------0>--2>--5-7-9-7-5-4-------|

Chorus (its not enough of what you want...)

G|-----------------9--7--6---9--7--6--6-------|

D|----------------0--0--0--0------------------|

A|-5--7---------------------7--7--7--7--------|

E|-------2--5---------------------------------|

Intro #2 (1x)

Verse

Chorus

Intro #2 (2x)

Under Solo 4x

G|----9--7--6---9--7--6---9--7--6----9--7--6---9/11-----|

D|----0-0--0--0------------------------------------------|

A|-------------7--7--7-7/9--9--9--9-0--0--0--0-----------|

E|-------------------------------------------------------|

Outro (repeats over and over)

G|------------------------------------------|

D|------------------------------------------|

A|-----------12--11--9--7-------------------|

E|-3>--7>--5>--------------3>--7>--5>--------

Take a Cracka lackin at it, im positive its accurate

*Nakedbassist

Taken from The BassMasta -- http://www.tabs-database.com

Get this song at:  amazon.com sheetmusicplus.com

Share your thoughts

0 Comments found