Face to Face

Face to Face - Shoot the Moon guitar tab

this is an awesome song and i was surprised not to find tabs.

so i got off my lazy behind and tabbed it in about 5 min.

enjoy!

intro /verse (...back in 95...)

e ----------------------------------------------------------------

B ----------------------------------------------------------------

G ----------------7-7-7-7-7-7-7-7-----------------5-5-5-5-5-5-5-5-

D 5-5-5-5-5-5-5-5-7-7-7-7-7-7-7-7-7-7-7-7-7-7-7-7-5-5-5-5-5-5-5-5-

A 5-5-5-5-5-5-5-5-5-5-5-5-5-5-5-5-7-7-7-7-7-7-7-7-3-3-3-3-3-3-3-3-

E 3-3-3-3-3-3-3-3-----------------5-5-5-5-5-5-5-5-----------------

pre chorus(...and i, i believed in everyone...)

e ----------------------------------------------------------------

B ----------------------------------------------------------------

G 5-5-5-5-5-5-5-5-5-5-5-5-5-5-5-5-5-5-5-5---------7-7-7-7-5-5-5-5-

D 5-5-5-5-5-5-5-5-5-5-5-5-5-5-5-5-5-5-5-5-5-5-5-5-7-7-7-7-5-5-5-5-

A 3-3-3-3-3-3-3-3-3-3-3-3-3-3-3-3-3-3-3-3-5-5-5-5-5-5-5-5-3-3-3-3-

E ----------------------------------------3-3-3-3-----------------

chorus is same as the verse except on the last chord there is this fill:

e -----------------

B -----------------

G -----------------

D 5-55-3-2-3-2-3-5-

A 3-33-3-3-3-3-3-3-

E -----------------

e mail me your comments at hitthegoblin@hotmail.com

Get this song at:  amazon.com sheetmusicplus.com

Share your thoughts

0 Comments found