Face to Face

Face to Face - Shame On Me guitar tab

------------------------------------------------------------------------------

SHAME ON ME - Face to Face

-------------------------------------------------------------------------------

By:

INTRO

Guitar 1

A E B(minor) D

e|--5--5--5- 5-----7-7-7-7-----7-7-7-7----5-5-5-5---------------------------------------------|

B|--5--5--5--5-----9-9-9-9-----7-7-7-7----7-7-7-7--------------------------------------------|

G|--6--6--6--6-----9-9-9-9-----7-7-7-7----7-7-7-7--------------------------------------------|

D|--7--7--7--7-----9-9-9-9-----9-9-9-9----7-7-7-7--------------------------------------------|

A|--7--7--7--7-----7-7-7-7-----9-9-9-9----5-5-5-7--------------------------------------------|

E|--5--5--5--5-----------------7-7-7-7-----------------------------------------------|

Guitar 2

e|---------------------------------------------------------------------------|

B|---------------------------------------------------------------------------|

G|--------------18-----------------------18-------------------18-19----------|

D|---------------------------------------------------------------------------|

A|------19----------19----------19-----------19------------19-------------19-|

E|--17------17----------17----------17------------17------17-----------------|

Get this song at:  amazon.com sheetmusicplus.com

Share your thoughts

0 Comments found