Face to Face

Face to Face - Sensible guitar tab

Face To Face

"Sensible"

Big Choice

Transcribed by Christopher D. Heimer

Standard Tuning

pm = pick muted

Intro/Chorus (no rhythm indicated, very simple)

F#m7 F#7add9 F#m7 Dsus2 F#m7 F#7add9 F#m7 D D

(clean tone for intro)

|----0------0-------0-------0-------0-------0-------0-------2-----|

|----5------5-------5-------3-------5-------5-------5-------3-----| (distortion)

|----2------1-------2-------2-------2-------1-------2-------2-----| =>to Bridge

|----4------4-------4-------0-------4-------4-------4-------0-----|

|-----------------------------------------------------------------|

|-----------------------------------------------------------------|

Bridge

A5 D5 A5 D5 A5 D5 A5 (let ring)

Breaks! | |

|------------------------------------------|

|------------------------------------------|

|-------7-7777------7-7777------7-7777-----|

|---7-7-7-7777--7-7-7-7777--7-7-7-7777--7--|

|---7-7-5-5555--7-7-5-5555--7-7-5-5555--7--|

|-5-5-5---------5-5---------5-5---------5--|

Verse played by bass 1x

Verse (4x)

A5 C#5 F#5 D5 E5

|----------------------------------------------------------|

|----------------------------------------------------------|

|-----------------------6-----------7-----7-----9-----9----|

|-----------------------6-----4-----7-----7-----9-----9----|

|---7-7-7-7-7-7-7-7-4-4-4-----4-5-5-5-5-5-5-7-7-7-7-7-7----|

|---5-5-5-5-5-5-5-5-------2-2-2----------------------------|

|--------pm-------| |-| |-| |-| |-| |-|

Chorus

play like intro, with distortion

Bridge

Bass 1x

Verse 2 (4x)

Chorus

Bridge

Solopart (constant 16th-notes)

D C# E G# A5 D5 C#5 B5

|-----------------------------------------------|

|-----------------------------------------------|

|--7----6----9----13--------7----6----4---------|

|--x----x----x----x----7----7----6----4---------|

|--5----4----7----11---7----5----4----2---------| (2x)

|----------------------5------------------------|

D G F# E D G F#

|----------------------------|

|----------------------------|

|--7--7--12-11-9--7-12-11----|

|--x--x--x--x--x--x--x--x----|

|--5--5--10-9--7--5-10-9-----|

|----------------------------|

Bridge play 8x times (the song ends with A)

Lyrics:

Someone tell me that I'm wrong

Someone tell me that I'm right

Someone tell me where I'm going

I guess it's safe to say

I don't know what I want

But I can't wait forever

It isn't difficult at all

I don't know what I want

But I can't wait forever

It isn't difficult at all

It makes no sense to me

Someone tell me that I'm black

Someone tell me that I'm white

Someone tell me that it's going

To make a difference

I don't know what I want

But I can't wait forever

It isn't difficult at all

It makes no sense to me

That was all. There might be some mistakes

within the solo part but I'm sure that

it's quite enough to play the song along.

If anyone can correct my mistakes (if there are)

or wants to tell me something, you're all welcome.

Enjoy!

Christopher (Heimer@t-online.de)

Get this song at:  amazon.com sheetmusicplus.com

Share your thoughts

0 Comments found