Face to Face

Face to Face - Resignation (Solo) guitar tab

-------------------------------------------------------------------------------

RESIGNATION (solo) - Face to Face

-------------------------------------------------------------------------------

By: Fed Chavez (Skyflier69@aol.com)

>From the self-titled album

e|---------------------------------------------------------------------------|

B|---------------------------------------------------------------------------|

G|---------------------------------------------------------------------------|

D|---------------------------------------------------------------------------|

A|---3---3---3---3---3---3---3---3---5---5---5---5---5---5---5---5-----------|

E|-3---3---3---3---3---3---3---3---3---3---3---3---3---3---3---3-------------|

e|---------------------------------------------------------------------------|

B|---------------------------------------------------------------------------|

G|---------------------------------------------------------------------------|

D|---------------------------------------------------------------------------|

A|---3---3---3---3---3---3---3---3---7---7---7---7--9-9-9-9-9-9-9-9----------|

E|-3---3---3---3---3---3---3---3---3---3---3---3-----------------------------|

e|---------------------------------------------------------------------------|

B|---------------------------------------------------------------------------|

G|---------------------------------------------------------------------------|

D|---------------------------------------------------------------------------|

A|---3---3---3---3---3---3---3---3---5---5---5---5---5---5---5---5-----------|

E|-3---3---3---3---3---3---3---3---3---3---3---3---3---3---3---3-------------|

e|---------------------------------------------------------------------------|

B|---------------------------------------------------------------------------|

G|---------------------------------------------------------------------------|

D|---------------------------------------------------------------------------|

A|---3---3---3---3---3---3---3---3---7---7---7---7--9-9-9-9-9-9-9-9----9/3---|

E|-3---3---3---3---3---3---3---3---3---3---3---3-----------------------------|

===============================================================================

Get this song at:  amazon.com sheetmusicplus.com

Share your thoughts

0 Comments found