Face to Face

Face to Face - Resignation guitar tab

-------------------------------------------------------------------------------

RESIGNATION - Face To Face

-------------------------------------------------------------------------------

By:Dave Segal

Intro(bass)

Riff 1

--------------------------------

--------------------------------

9------5------7-----------------

9------5------7------7----------

7------3------5------7----------

---------------------5----------

Riff 2

--------------------------------

--------------------------------

7----9----11----12----11----9---

x----x----x------x-----x----x---

5----7----9-----10-----9----7---

--------------------------------

Riff 3

"You can't be right…"

--------------------------------

--------------------------------

--------------------------------

9----9----5----7----9-----------

9----9----5----7----9-----------

7----7----3----5----7-----------

Riff 4

--------------------------------

--------------------------------

-----7----4----5----------------

5----7----4----5----------------

5----5----2----3----------------

3-------------------------------

Basically, I think the order goes like this:

Intro

Riff 1

Riff 2

Riff 3

Riff 1

Riff 2

Riff 3

Riff 1

Riff 2

Riff 4

=======================================================================

Get this song at:  amazon.com sheetmusicplus.com

Share your thoughts

0 Comments found