Face to Face

Face to Face - Resignation bass tab

Face to Face

Resignation

Tabbed by Gabe Spalding

Email me at pgs@ufl.edu

Intro:

G|-------------------------------------------------------------------|

D|-------------------------------------------------------------------|twice

A|7-7-7773-33-3335-5-5550-00-0007-7-7773-33-3335-5-555/12-1212-121212|

E|-------------------------------------------------------------------|

//Guitars come in

G|-------------------------------------------------------------------|

D|-------------------------------------------------------------------|twice

A|7-7-7773-33-3335-5-5550-00-0007-7-7773-33-3335-5-555/12-1212-121212|

E|-------------------------------------------------------------------|

Break:

G|--------------------------------------------------------------|

D|--------------------------------------------------------------|twice

A|5-5-5555-55-5555-5-5-5555-55-5557-7-7777-77-7773-3-3333-33-333|

E|--------------------------------------------------------------|

Verse1: (You can't be right...)

G|------------------------------------------------------------------|

D|------------------------------------------------------------------|

A|2-2-2222-22-2222-2-2-2222-22-0202-2-2-2222-22-2222-2-2-2222-22-222|

E|------------------------------------------------------------------|

G|------------------------------------------------------------------|

D|------------------------------------------------------------22-222|

A|------------------------------------------------------------------|

E|3-3-3333-33-3335-5-5-5555-55-5550-0-0-0000-00-0000-0-0-0000-------|

G|------------------------------------------------------------------|

D|------------------------------------------------------------------|

A|2-2-2222-22-2222-2-2-2222-22-0202-2-2-2222-22-2222-2-2-2222-22-222|

E|------------------------------------------------------------------|

G|------------------------------------------------------------------|

D|------------------------------------------------------------------|

A|--------------------------------------------------5h7-77775h7-7777|

E|3-3-3333-33-3335-5-5-5555-55-5550-0-0-0000-00-0000----------------|

Chorus 1: (I am someone who'll...)

G|-------------------------------------------------------------------|

D|-------------------------------------------------------------------|twice

A|7-7-7773-33-3335-5-5550-00-0007-7-7773-33-3335-5-555/12-1212-121212|

E|-------------------------------------------------------------------|

Chorus 2: (You're giving up on me...)

G|--------------------------------------------------------------|

D|--------------------------------------------------------------|four times

A|5-5-5555-55-5555-5-5-5555-55-5557-7-7777-77-7773-3-3333-33-333|

E|--------------------------------------------------------------|

Go back to Verse 1, and play thru to this point

There are a few variatons, very easy to pick out.

G|-----------------------|

D|-----------------------|

A|3-3-3333-33-3333-3--5-5|

E|-----------------------|

Play next part twice, then the words come in: (You can't expect the

world...)

Then play twice more:

G|----------------------------------------------------------------|

D|----------------------------------------------------------------|

A|--------------------------------5-5-5-5-5-5-5-5-5-5-5-5-5-5-5-5-|

E|3-3-3-3-3-3-3-3-3-3-3-3-3-3-3-3---------------------------------|

G|----------------------------------------------------------------|

D|----------------------------------------------------------------|

A|2-2-2-2-2-2-2-2-2-2-2-2-2-2-2-2-3-3-3-3-3-3-3-3-3-3-3-3-3-3-3-3-|

E|----------------------------------------------------------------|

Play this twice, when he is not singing:

G|----------------------------------------------------------------|

D|----------------------------------------------------------------|

A|--------------------------------5-5-5-5-5-5-5-5-5-5-5-5-5-5-5-5-|

E|3-3-1-3-3-3-1-3-3-3-1-3-3-3-1-3---------------------------------|

G|----------------------------------------------------------------|

D|----------------------------------------------------------------|

A|2-2-2-2-2-2-2-2-2-2-2-2-2-2-2-2-3-3-3-3-3-3-3-3-3-3-3-3-3-3-3-3-|

E|----------------------------------------------------------------|

Then play the last part again-

Then sub this for the last bar:

G|------------------------------------------------|----------------|

D|------------------------------------------------|----------------|

A|2-2-2-2-2-2-2-2-2-2-2-2-2-2-2-2-3-3-3-3-3-3-3-3-|3-3-5-5---------|

E|------------------------------------------------|--------3-------|

END.

******************

Tabbed by *

Gabe Spalding *

pgs@ufl.edu *

******************

Get this song at:  amazon.com sheetmusicplus.com

Share your thoughts

0 Comments found