Face to Face

Face to Face - Put You In Your Place guitar tab

-------------------------------------------------------------------------------

PUT YOU IN YOUR PLACE - Face to Face

-------------------------------------------------------------------------------

By:Gboyega (Disembowl@aol.com)

Riff 1

e|--------------------------------------------------------------------|

B|--------------------------------------------------------------------|

G|-9--9--9-9-9--14-14-14--12--12--------------------------------------|

D|-x--x--x-x-x--x--x--x---x---x---------------------------------------|

A|-7--7--7-7-7--12-12-12--10--10--------------------------------------|

E|--------------------------------------------------------------------|

Riff 2 Gtr. 1

e|--------------------------------------------------------------------|

B|--------------------------------------------------------------------|

G|-----5-7-----5-7-----5-7-----5-7------------------------------------|

D|-x-5-----x-4--------------------------------------------------------|

A|-----------------x-7-----x-3----------------------------------------|

E|--------------------------------------------------------------------|

| Gtr. 2 |

e|--------------------------------------------------------------------|

B|--------------------------------------------------------------------|

G|-12-12-12-12-12--11-11-11-11-11--9-9-9-9-9--5-5-5-5-5---------------|

D|-12-12-12-12-12--11-11-11-11-11--9-9-9-9-9--5-5-5-5-5---------------|

A|-10-10-10-10-10--9--9--9--9--9---7-7-7-7-7--3-3-3-3-3---------------|

E|--------------------------------------------------------------------|

Verse

e|--------------------------------------------------------------------|

B|--------------------------------------------------------------------|

G|-7-7-7-7-7-7-7-7-7--------------------------------------------------|

D|-7-7-7-7-7-7-7-7-7--2-2-2-2-2-2--5-5-5-5-5-5------------------------|

A|-5-5-5-5-5-5-5-5-5--2-2-2-2-2-2--5-5-5-5-5-5------------------------|

E|--------------------0-0-0-0-0-0--3-3-3-3-3-3------------------------|

Pre-Chorus

e|--------------------------------------------------------------------|

B|--------------------------------------------------------------------|

G|-5-5-5-5--2-2-2-2--7-7-7-7------------------------------------------|

D|-5-5-5-5--2-2-2-2--7-7-7-7------------------------------------------|

A|-3-3-3-3--0-0-0-0--5-5-5-5------------------------------------------|

E|--------------------------------------------------------------------|

Chorus

e|--------------------------------------------------------------------|

B|--------------------------------------------------------------------|

G|----------------7-7-7-7-7-7-7--9-9-9-9--7-7-7-7--5-5-5-5------------|

D|-5-5-5-5-5-5-5--7-7-7-7-7-7-7--9-9-9-9--7-7-7-7--5-5-5-5------------|

A|-5-5-5-5-5-5-5--5-5-5-5-5-5-5--7-7-7-7--5-5-5-5--3-3-3-3------------|

E|-3-3-3-3-3-3-3------------------------------------------------------|

=============================================================================

Get this song at:  amazon.com sheetmusicplus.com

Share your thoughts

0 Comments found