Face to Face

Face to Face - Promises guitar tab

-##

Artist: Face to Face

Song: Promises

Album: Big choice

Tabbed by: Wheelz (rbreck@foxnet.net)

As usual i didn't do the rythem, so figure it out yourself.

Intro

-----

e|--------------------------------|

B|--------------------------------|

G|---------------6---4------------|

D|---2---4---7---6---4------------|

A|---2---4---7---4---2------------|

E|---0---2---5--------------------|

Whats the matter with my view....

e|--------------------------------------------|

B|--------------------------------------------|

G|----------9--8-------------9--8-------------|

D|--2--X----9--8--9---7--X---9--8--9----------|

A|--2--X----7--6--9---7--X---7--6--9----------|

E|--0--X----------7---5--X---------7----------|

Thats not the way its supposed to be....

e|-----------------------------------------|

B|-----------------------------------------|

G|-----------4---------------4-------------|

D|---6---7---4-------7---6---4-------------|

A|---6---7---2-------7---6---2-------------|

E|---4---5-----------5---4-----------------|

I don't want Promises...

e|-----------------------------------|

B|-----------------------------------|

G|----------------6---4--------------|

D|----2---4---7---6---4--------------|

A|----2---4---7---4---2--------------|

E|----0---2---5----------------------|

So go and turn and walk away....

e|------------------------------------|

B|------------------------------------|

G|--6---4-----------4-----------------|

D|--6---4---7---2---4---6---7---------|

A|--4---2---7---2---2---6---7---------|

E|----------5---0-------4---5---------|

I see no honesty in promises you make....

e|-----------------------------------|

B|-----------------------------------|

G|--9-------6---------------4--------|

D|--9---9---6---6---7---6---4--------|

A|--7---9---4---6---7---6---2--------|

E|------7-------4---5---4------------|

Get this song at:  amazon.com sheetmusicplus.com

Share your thoughts

0 Comments found