Face to Face

Face to Face - Prodigal guitar tab

Verse 2nd verse first time

e|-00-0-----------------------00-0-------------------------------------------|

B|-00-0-----------------------00-0-------------------------------------------|

G|-22-2----------6666666666---22-2-----------6666666666--6/8-8/9-11/11-------|

D|-22-2--444444--6666666666---22-2--44-4444--6666666666--x/x-x/x--x/x--------|

A|-00-0--444444--4444444444---00-0--44-2222--4444444444--4/6-6/7--7/9--------|

E|-------222222---------------------11/2222----------------------------------|

between versus and pre-chorus

e|-00000----------00000------------------------------------------------------|

B|-00000----------00000------------------------------------------------------|

G|-44444--9-8-4-6-44444------------------------------------------------------|

D|-44444--x-x-x-x-44444------------------------------------------------------|

A|-22222--7-6-2-4-22222------------------------------------------------------|

E|---------------------------------------------------------------------------|

Chorus

e|-0000000000--0000000000------------0000000000------------------------------|

B|-0000000000--0000000000------------0000000000------------------------------|

G|-1111111111--4444444444------------2222222222------------------------------|

D|-2222222222--4444444444-4444444444-2222222222------------------------------|

A|-2222222222--2222222222-4444444444-0000000000------------------------------|

E|-0000000000-------------2222222222-----------------------------------------|

Outro

e|-4--4--7----4--4--7----4--4--7----4--4--7----------------------------------|

B|--5--5----5--5--5--5----4--4----4--4--4--4---------------------------------|

G|---------------------------------------------------------------------------|

D|---------------------------------------------------------------------------|

A|---------------------------------------------------------------------------|

E|---------------------------------------------------------------------------|

Over different series of chords and octaves....and fades out

e|-0000000000-----------------------------------000000000000-----------------|

B|-0000000000-----------------------------------000000000000-----------------|

G|-1111111111--8888888888--1111111111111111111--111111111111-----------------|

D|-2222222222--xxxxxxxxxx--x-x-x-x-x-x-x-x-x-x--222222222222-----------------|

A|-2222222222--6666666666--9-9-9-9-9-9-9-9-9-9--222222222222-----------------|

E|-0000000000-----------------------------------000000000000-----------------|Added by tabs-database.com and our distinguished partners

Get this song at:  amazon.com sheetmusicplus.com

Share your thoughts

0 Comments found