Face to Face

Face to Face - Popeye The Sailor Man guitar tab

Artista: face 2 face

M�sica: Popeye the Sailor Man

�lbum: Saturday Morning

Tabber: pumpkinbrasil@geocities.com (FeedBack!)

Afina��o: NORMAL, EADGBe

**************************************************************************

Visitem minha homepage! La voce encontra mais musicas que eu tirei, ou que

outros ja transcreveram, Smashing Pumpkins, e mais umas bobagens.

www.geocities.com/TheTropics/4619

**************************************************************************

**************************************************************************

C5 =x35xxx

F5 =13xxxx

F5 ii =xx35xx

G5 =35xxxx

G5 ii =xx57xx

D5 =x57xxx

G5 =35xxxx

A5 =57xxxx

A5 ii =xx79xx

B5 =79xxxx

E5 =x79xxx

**************************************************************************

-Haha, aposto que ningu�m nunca pensou em ver uma tab assim...pois �,

essa banda, face to face (punk?!) fez essa vers�o muito louca da m�sica

do nosso velho POPEYE para o disco SATURDAY MORNING, aquele que traz

v�rias m�sicas de desenhos (RAMONES,spider man - SUBLIME,Hong Kon Phooey)

-Inclu� tambem o solo, meio chatinho de pegar no come�o, mas depois que

voc� consegue r�pido, n�o consegue parar de tocar...

-O primeiro solo, � feito num baixo...mas como eu estou inspirado hoje,

tamb�m pus ele...

**************************************************************************

Intro:

(ondas...batera)

-------------------------------------------------------------------------------

---------------------------------1~-----------------1-0------------------------

-------------------------0-2---2----2-0-----0-2---2-----2-0-2-0----------------

---/5-5-5--3~-2--/5~---------3------------------3---------------2--2/5-5-3-0---

-----------------------------------------------------------------3----------3~-

-------------------------------------------------------------------------------

(depois disso entram as guitarras tocando C5 somente...)

-em seguida, palm muting em G5.

Refr�o:

C5 F5 C5 F5

I'm Popeye the sailor man....I'm Popeye the sailor man..I'm strong to be FINICH

C5 G5 C5

cause I eats me Spinach.. I'm Popeye the Sailor Man!

***

Verso:

F5 ii

I'm one tough Gazookus

C5

Which hates all Palookas

G5 ii C5

Wot ain't on the up and square

F5 ii

I biff'em and buffs'em

C5

and' always outroughs'em

G5 ii C5

and' none of'em gits nowhere

***

F5 ii C5

if anyone dasses to risk my fisk

C5 F5 ii

it's boff and it's wham understand?

F5 ii

so, keep good behavior

C5

that's your one life saver

G5 ii C5

with popeye the sailor man

***

Refr�o...

***

Solo:

C5 G5

-------------------------------------------------------------------

-----------------------------5-3---3~-------3----------------------

--5-4-5--------------0-5-4-5-----5------------5-4-2-0--------------

---------------5-3-2------------------5-5~------------3-5~---------

--------3-3~-------------------------------------------------------

-------------------------------------------------------------------

C5 F5 G5 C5

-------------------------------------------------------------------

----0-1-0-----------------------------------------------------------

--2-------2-0-2-0---------------------------------------------------

------------------3-2-3-2-0---0---------------0-2-3-2h3p2-----------

----------------------------3---3-2-0---0-2-3-------------3-3~~-----

--------------------------------------3-----------------------------

(A base � a mesma do verso agora)

-------------------------------------------------------------------

-------------------------------------------------------------------

--2-2-2-------0-0-0----------------2-0-----------------------------

--------0-2-3---------0-2--3-3-3-----------------------------------

--------------------3------------2---------------------------------

-------------------------------------------------------------------

-------------------------------------------------------------------

-------------------------------------------------------------------

--2-2-2-------0-0-0------------------------------------------------

--------0-2-3---------0-2--3-3-3-----------------------------------

--------------------3------------2-2-3~----------------------------

-------------------------------------------------------------------

***

-Ap�s o solo, a m�sica sobe um tom..� basicamente a mesma coisa, 2 frets para

cima...

C5->D5

F5->G5

G5->A5

-O acorde que � tocado antes da subida, � C5...

D5 G5 D5 G5 D5 A5 D5

I'm Popeye the...I'm Popeye ...

-depois:

G5ii D5 A5ii D5...e assim por diante..

***

-A m�sica sobe mais um tom...a mesma coisa...

E5 A5 E5 A5 E5 B5 E5 apito...

I'm Popeye the...I'm Popeye ...

**************************************************************************

Mandem email, qualquer coisa. Duvidas...etc... Quer alguma musica em especial?

Eu tiro pra voce.. ou pelo menos tento!

pumpkinbrasil@geocities.com (FeedBack!)

***************************************************************************

Get this song at:  amazon.com sheetmusicplus.com

Share your thoughts

0 Comments found