Face to Face

Face to Face - Popeye guitar tab

-------------------------------------------------------------------------------

POPEYE - Face To Face

-------------------------------------------------------------------------------

Tabbed by Tiago "O Bagual"

CHORDS USED

e B G D A E

C5 - - 5 5 3 -

F5 - - - 3 3 1

G5 - - - 5 5 3

F5II - - 8 11 11 -

C5II - - - 8 11 11

G5II - - 10 12 12 -

CHORUS

C5 F5 C5 F5 C5 G5 C5

VERSE

F5II C5II G5II C5II (2x)

F5II C5II C5II F5II

F5II C5II G5II C5II

SOLO

e---------------------------------------------------------

B----------------------------5-3-2-3--------3-2-----------

G-5-4-5----------------2-4-5--------------------4-2-------

D--------------5-3-2-5----------------5--5----------5--5--

A--------3--3---------------------------------------------

E---------------------------------------------------------

e--------------------------------------------------------------

B--------------------------------------------------------------

G-2-4-5-4-2---2------------------------------------------------

D-----------5---5-3-2-3-2-----------------------3-2---2--------

A-------------------------5-3-5-3-2-------2-3-5-----5----3--3--

E-----------------------------------5-3-5----------------------

e--------------------------------------------------------------

B--------------------------------------------------------------

G-14-14-14--14>7-7>9--12-12-12--12>7-7>9--10-10-10-10>5-14>12--

D--------------------------------------------------------------

A-12-12-12--12>5-5>7--10-10-10--10>5-5>7--8--8--8---8>3-12>10--

E--------------------------------------------------------------

e--------------------------------------------------------------

B--------------------------------------------------------------

G-12>14-14-14--14>7-7>9--12-12-12--12>7-7>9--10-10-10-10>5-7>3-

D--------------------------------------------------------------

A-10>12-12-12--12>5-5>7--10-10-10--10>5-5>7--8--8--8---8>3-5>3-

E--------------------------------------------------------------

So, chorus and the verse are played 2 "casas" down. Afterwards, more 2

down...

Questions, corrections and bla bla bla: tiagomendes@hotmail.com

-------------------------------------------------------------------------------

Get this song at:  amazon.com sheetmusicplus.com

Share your thoughts

0 Comments found