Face to Face

Face to Face - Pastel guitar tab

-------------------------------------------------------------------------------

PASTEL - Face To Face

-------------------------------------------------------------------------------

Moon Doggie - xianmc@ssimicro.com

INTRO:

e|-------------------------------------------------------------------------|

B|-------------------------------------------------------------------------|

G|-9-9-9-7-7-9-9-7--9-9-9-7-7-9-9-7----------------------------------------|

D|-7-7-7-7-7-7-7-7--7-7-7-7-7-7-7-7--11-11-11-9-9-11-11-9--9-9-9-7-7-9-9-7-|

A|-----------------------------------9--9--9--9-9-9--9--9--7-7-7-7-7-7-7-7-|

E|-------------------------------------------------------------------------|

VERSE:

A D F# E

Another falls in place You wonder if you're only human

A D F# E (see tab)

It's blood, dust and paste We're held together by a single thread

e|------------------------------------------------------------------|

B|------------------------------------------------------------------|

G|---7--------------------------9-----------------------------------|

D|---7------------7-------------9-----------------------------------|

A|---5------------7-------------7-----------------------------------|

E|----------------5-------------------------------------------------|

Must be a reason for us to justify it

But no one will defy it (repeat intro)

VERSE:

A D F# E

What is it with this place? Or is it that i'm missing something?

A D F# E (see above tab)

You want to see my face when I can't even see it for myself

(repeat intro)

SOLO: (sort of)

e|-----------------------------------------------------------|

B|-----------------------------------------------------------|

G|-------------------------------------9---------------------|

D|--7--(with feedback)---------------------------------7----|

A|--7--------------------------------------------------7----|

E|--5--------------------------------------------------5----|

(no guitar)

I don't want a game that I don't know how to play Just go away

And I don't want to know how to play Can't I make it just go away?

e|-----------------------------------------------------------------------|

B|-----------------------------------------------------------------------|

G|-----------------9--------7------------------------9--------7----------|

D|--X-X-X-7--------9--------7---------------7--------9--------7------7--|

A|--X-X-X-7--------7--------5---------------7--------7--------5------7--|

E|--X-X-X-5---------------------------------5------------------------5--|

away______________ (just go away) just go away_____(just go away)

e|-----------------------------------------------------|

B|-----------------3-------------3-------------3-------|

G|-----------------2-------------2-----2-------2-------|

D|---------2-------0-----2-------0--------2----0-------|

A|------------0-------------0--------------------------|

E|-----------------------------------------------------|

A E D

Don't you understand what these problems will demand make it just go away

A E D

I don't want a game that I don't know how to play just go away

D A E

Ahhh_______________________ must be a reason for us to justify it

Ahhh_______________________ but no one will defy it

(repeat intro)

e|--------------------------------------|

B|--------------------------------------|

G|--------------------------------------|

D|--7-(pick slide)----------7----------|

A|--7-----------------------7----------|

E|--5-----------------------5----------|

-------------------------------------------------------------------------------

Get this song at:  amazon.com sheetmusicplus.com

Share your thoughts

0 Comments found