Face to Face

Face to Face - Paint It Black guitar tab

-------------------------------------------------------------------------------

PAINT IT BLACK - Face to Face

-------------------------------------------------------------------------------

By: Andrew Sernatinger (uwaoogau@aol.com)

X4 (intro)

e|---0--2--3--5--3--2--0--0-----0--2--0--------------------------------------|

B|---------------------------4-----------4-----------------------------------|

G|---------------------------------------------------------------------------|

D|---------------------------------------------------------------------------|

A|---------------------------------------------------------------------------|

E|---------------------------------------------------------------------------|

X2 the first time (chorus)

e|---------------------------------------------------------------------------|

B|---------------------------------------------------------------------------|

G|---9--5-5-5----------------------------------------------------------------|

D|---9--5-5-5--5-5-5--8-8-8-8-9-9-9-9-9-9------------------------------------|

A|---7--3-3-3--5-5-5--8-8-8-8-9-9-9-9-9-9------------------------------------|

E|-------------3-3-3--6-6-6-6-7-7-7-7-7-7------------------------------------|

it goes between chorus and intro, and after the intro plays just by itself,

you add in this part with a second guitar

|PM|--------------------------------|

e|---------------------------------------------------------------------------|

B|---------------------------------------------------------------------------|

G|---9-9-9-9-9-9-9-9--5-5-5-5-5-5-5-5----------------------------------------|

D|---9-9-9-9-9-9-9-9--5-5-5-5-5-5-5-5----------------------------------------|

A|---7-7-7-7-7-7-7-7--3-3-3-3-3-3-3-3----------------------------------------|

E|---------------------------------------------------------------------------|

It's pretty much

----------------

Intro

Chorus over and over until the song ends.

-------------------------------------------------------------------------------

Get this song at:  amazon.com sheetmusicplus.com

Share your thoughts

0 Comments found