Face to Face

Face to Face - Pain guitar tab

-------------------------------------------------------------------------------

PAIN - Face to Face

-------------------------------------------------------------------------------

By: cool clown (cool_clown@hotmail.com)

Intro

e|-------------------------------------4-----4---------------4-----4-------------|

B|---------------------------------5-7---5-7---7-5-7-----5-7---5-7---7-5-7-------|

G|------xx-2------xx-2------xx-2-------------------------------------------------|

D|-xx-2-xx-2-xx-2-xx-2-xx-2-xx-2----------------------7---------------------7----|

A|-xx-2-xx-0-xx-2-xx-0-xx-2-xx-0----------------------7---------------------7----|

E|-xx-0------xx-0------xx-0---------------------------5---------------------5----|

e|------4-----4---------------4-----4-------------------------------------------|

B|--5-7---5-7---7-5-7-----5-7---5-7---7-5-7-------------------------------------|

G|------------------------------------------------------------------------------|

D|--------------------7---------------------7-----------------------------------|

A|--------------------7---------------------7-----------------------------------|

E|--------------------5---------------------5-----------------------------------|

Verse

e|-------------------------------4-----4--------------4-----4--------------------|

B|---------------------------5-7---5-7---7-5-7----5-7---5-7---7-5-7--------------|

G|----2--4--2------2--4--2-------------------------------------------------------|

D|-2--2--4--2---2--2--4--2---------------------7---------------------7-----------|

A|-2--0--2--0---2--0--2--0---------------------7---------------------7-----------|

E|-0------------0------------------------------5---------------------5-----------|

e|----------------------------------------------------------------------------|

B|----------------------------------------------------------------------------|

G|----2--4--2------2--4--2----------------------------------------------------|

D|-2--2--4--2---2--2--4--2----------------------------------------------------|

A|-2--0--2--0---2--0--2--0----------------------------------------------------|

E|-0------------0-------------------------------------------------------------|

chorus

e|--------------------------------------------------------------------------------|

B|--------------------------------------------------------------------------------|

G|-9999999------------------------------------------------------------------------|

D|-9999999-999-7777777-11111111111111-9999999--X2--7/99999-7-7777-9-9999-7-7777---|

A|-7777777-999-7777777-11111111111111-9999999------7/99999-7-7777-9-9999-7-7777---|

E|---------777-5555555-9-9-9-9-9-9-9--7777777------5/77777-5-5555-7-7777-5-5555---|

e|--------------------------------------------------------------------------------|

B|--------------------------------------------------------------------------------|

G|------------------------------9999999-------------------------------------------|

D|-9-9999-7-7777-9-9999-7-7777--9999999-999-7777777-11111111111111-9999999--------|

A|-9-9999-7-7777-9-9999-7-7777--7777777-999-7777777-11111111111111-9999999--------|

E|-7-7777-5-5555-7-7777-5-5555----------777-5555555-9-9-9-9-9-9-9--7777777--------|

e|------------------------------------------------4-----4---------------4-----4------------|

B|--------------------------------------------5-7---5-7---7-5-7-----5-7---5-7---7-5-7------|

G|-9999999---------------------------------------------------------------------------------|

D|-9999999-999-7777777-11111111111111-9999999--------------------7---------------------7---|

A|-7777777-999-7777777-11111111111111-9999999--------------------7---------------------7---|

E|---------777-5555555-9-9-9-9-9-9-9--7777777--------------------5---------------------5---|

verse 2

e|--------------------------------------------------------------------------------|

B|--------------------------------------------------------------------------------|

G|----2--4--2-----------2222222-44444444/6666666----------------------------------|

D|-2--2--4--2--22222222-2222222-44444444/6666666--7/999999-7-7777-9-9999-7-7777---|

A|-2--0--2--0--22222222-0000000-22222222/4444444--7/999999-7-7777-9-9999-7-7777---|

E|-0-----------00000000---------------------------5/777777-5-5555-7-7777-5-5555---|

e|---------------------------------------------------------------------------|

B|---------------------------------------------------------------------------|

G|---------------------------------------------------------------------------|

D|-9-9999-7-7777-9-9999-11-11111111------------------------------------------|

A|-9-9999-7-7777-9-9999-11-11111111------------------------------------------|

E|-7-7777-5-5555-7-7777-9--9-9-9-9-------------------------------------------|

chorus 2

e|---------------------------------------------------------------------------|

B|---------------------------------------------------------------------------|

G|-9999999-------------------------------------------------------------------|

D|-9999999-999-7777777-11111111111111-9999999-X2--7-7------------------------|

A|-7777777-999-7777777-11111111111111-9999999-----7-7------------------------|

E|---------777-5555555-9-9-9-9-9-9-9--7777777-----5-5------------------------|

If there's any mistakes please e-mail me

===============================================================================

Get this song at:  amazon.com sheetmusicplus.com

Share your thoughts

0 Comments found