Face to Face

Face to Face - Ordinary (Live) guitar tab

-------------------------------------------------------------------------------

ORDINARY (LIVE) – Face To Face

-------------------------------------------------------------------------------

By: Glenn P.

Intro A

e|------------------------------------------------------------------------|

G|--------------------xx5--------------------55---------------------------|

D|--xx7---xx2---xx3---xx5-----77---22---33---55---------------------------|

A|--xx7---xx2---xx3---xx3(x3)-77---22---33---33---------------------------|

E|--xx5---xx0---xx1-----------55---00---11--------------------------------|

Intro B

e|-------------------------------------------------------------------------|

B|-------------------------------------------------------------------------|

G|-----------------55------------------------------------------------------|

D|--77---22---33---55—(4x)-------------------------------------------------|

A|--77---22---33---33------------------------------------------------------|

E|--55---00---11-----------------------------------------------------------|

Verse

e|-------------------------------------------------------------------------|

B|-------------------------------------------------------------------------|

G|--------------------------------55-------------------55------------------|

D|---5---5---555---77---22---33---55----77---22---33---55------------------|

A|---5---5---555---77---22---33---33----77---22---33---33------------------|

E|---3---3---333---55---00---11---------55---00---11-----------------------|

e|-------------------------------------------------------------------------|

B|-------------------------------------------------------------------------|

G|---------------------------55-------------------55-----------------------|

D|---5---5----77---22---33---55----77---22---33---55-----------------------|

A|---5---5----77---22---33---33----77---22---33---33-----------------------|

E|---3---3----55---00---11---------55---00---11----------------------------|

“Ordinary, Ordinary”

e|------------------------------------------------------------------------|

B|------------------------------------------------------------------------|

G|------------------------------------------------------------------------|

D|---3---3----------------------------------------------------------------|

A|---3---3----------------------------------------------------------------|

E|---1---1----------------------------------------------------------------|

Chorus “Look in the mirror…”

e|------------------------------------------------------------------------|

B|------------------------------------------------------------------------|

G|---555----------------------555-----------------------------------------|

D|---555---555---777---333----555---555---3xxxx---------------------------|

A|---333---555---777---333----333---555---3xxxx---------------------------|

E|---------333---555---111----------333---1xxxx---------------------------|

e|------------------------------------------------------------------------|

B|------------------------------------------------------------------------|

G|---555----------------------555-----------------------------------------|

D|---555---555---777---333----555---555---3333----------------------------|

A|---333---555---777---333----333---555---3333----------------------------|

E|---------333---555---111----------333---1111----------------------------|

e|------------------------------------------------------------------------|

B|------------------------------------------------------------------------|

G|-----------------55-----------------------------------------------------|

D|--77---22---33---55---(4x)----------------------------------------------|

A|--77---22---33---33-----------------------------------------------------|

E|--55---00---11----------------------------------------------------------|

Verse

e|------------------------------------------------------------------------|

B|------------------------------------------------------------------------|

G|--------------------------------55-------------------55-----------------|

D|---5---5---555---77---22---33---55----77---22---33---55-----------------|

A|---5---5---555---77---22---33---33----77---22---33---33-----------------|

E|---3---3---333---55---00---11---------55---00---11----------------------|

“Ordinary, Ordinary”

e|------------------------------------------------------------------------|

B|------------------------------------------------------------------------|

G|------------------------------------------------------------------------|

D|---3---3----------------------------------------------------------------|

A|---3---3----------------------------------------------------------------|

E|---1---1----------------------------------------------------------------|

Chorus “Look in the mirror…”

e|------------------------------------------------------------------------|

B|------------------------------------------------------------------------|

G|---555----------------------555-----------------------------------------|

D|---555---555---777---333----555---555---3xxxx---------------------------|

A|---333---555---777---333----333---555---3xxxx---------------------------|

E|---------333---555---111----------333---1xxxx---------------------------|

e|------------------------------------------------------------------------|

B|------------------------------------------------------------------------|

G|---555----------------------555-----------------------------------------|

D|---555---555---777---333----555---555---3333----------------------------|

A|---333---555---777---333----333---555---3333----------------------------|

E|---------333---555---111----------333---1111----------------------------|

e|-----------------------------------------------------------------------|

B|-----------------------------------------------------------------------|

G|------------------55------------------55-------------------------------|

D|---77---22---33---55---77---22---33---55---7---------------------------|

A|---77---22---33---33---77---22---33---33---7(let ring out)-------------|

E|---55---00---11--------55---00---11--------5---------------------------|

Interlude (bass plays for about 10 sec. Then play this fast)

e|------------------------------------------------------------------------|

B|------------------------------------------------------------------------|

G|---14-14-14-14-14-14-14-14-14-14-14-14-14--14-14-14-14-14-14------------|

D|---14-14-14-14-14-14-14-14-14-14-14-14-14--14-14-14-14-14-14------------|

A|---12-12-12-12-12-12-12-12-12-12-12-12-12--12-12-12-12-12-12------------|

E|------------------------------------------------------------------------|

e|------------------------------------------------------------|

B|------------------------------------------------------------|

G|------------------------------------------------------------|

D|---7---5----------------------------------------------------|

A|---7---5----------------------------------------------------|

E|---5---3----------------------------------------------------|

Chorus “Look in the mirror…”

e|------------------------------------------------------------------------|

B|------------------------------------------------------------------------|

G|---555----------------------555-----------------------------------------|

D|---555---555---777---333----555---555---3xxxx---------------------------|

A|---333---555---777---333----333---555---3xxxx---------------------------|

E|---------333---555---111----------333---1xxxx---------------------------|

e|-----------------------------------------------------------------------|

B|-----------------------------------------------------------------------|

G|---555----------------------555----------------------------------------|

D|---555---555---777---333----555---555---3333---------------------------|

A|---333---555---777---333----333---555---3333---------------------------|

E|---------333---555---111----------333---1111---------------------------|

“Ordinary, Ordinary”

e|-------------------------------------------------------|

B|-------------------------------------------------------|

G|-------------------------------------------------------|

D|---3--3--3--3------------------------------------------|

A|---3--3--3--3------------------------------------------|

E|---1--1--1--1------------------------------------------|

e|----------------------------------------------------------|

B|----------------------------------------------------------|

G|------------------55------------------55------------------|

D|---77---22---33---55---77---22---33---55------------------|

A|---77---22---33---33---77---22---33---33------------------|

E|---55---00---11--------55---00---11-----------------------|

===============================================================================

Get this song at:  amazon.com sheetmusicplus.com

Share your thoughts

0 Comments found