Face to Face

Face to Face - Ordinary guitar tab

-------------------------------------------------------------------------------

ORDINARY - Face to Face

-------------------------------------------------------------------------------

By: PuNkx

downtune to D

e|---------------------------|

B|---------------------------| this is really simple ... the second guitar

G|---------------------------| right b4 the lyric plays a simple B. Then the

D|-4-4-4---------------7-7-7-| two play this riff without p.m

A|-2-2-2--4-4-4-5-5-5--5-5-5-|

E|--------2-2-2-3-3-3--------|

pm.........................

e|--------------------------|-----------------------------------------------|

B|--------------------------|-----------------------------------------------|

G|--------------------------|-----------------------------------------------|

D|--------------------------|--6-6-6-6-6---------------4-4-4-4-4------------|

A|---5---------5------5-5-5-|--4-4-4-4-4--6-6-6-6-6-6--2-2-2-2-2--4-4-4-4-4-|

E|---3---------3------3-3-3-|-------------4-4-4-4-4-4-------------2-2-2-2-2-|

e|--------------------------------------------------------------------

B|--------------------------------------------------------------------

G|--12-12-12-12-12-12-12-12--10-10-10-10-10-10-10-10-repeatthis x4

D|--12-12-12-12-12-12-12-12--10-10-10-10-10-10-10-10------------------

A|--10-10-10-10-10-10-10-10---8--8--8--8--8--8--8--8------------------

E|--------------------------------------------------------------------

except on the last repeat, do this at the end instead of the eight 8/10/10 's

e|--------------------------------------------------------------------

B|--------------------------------------------------------------------

G|--10-10-10-10-------------------------------------------------------

D|--10-10-10-10-----7--------5----------------------------------------

A|---8--8--8--8-----7--------5----------------------------------------

E|------------------5--------3----------------------------------------

======

-------------------------------------------------------------------------------

ORDINARY - face to face

-------------------------------------------------------------------------------

CHORDS USED

A E F G C Eii Fii

|----------------------------------------|

|----------------------------------------|

|--------1---------------5----9----10----|

|---7----2-----3----5----5----9----10----|

|---7----2-----3----5----3----7----8-----|

|---5----0-----1----3--------------------|

Intro: A, E, F, C

Verse1:

G

now you've made it up its all inside your mind

G

now youve given up you dont know whats there if you dont try

A, E, F, C

Verse2:

so youve given in along with all your "friends"

and youre still alone the means dont always justify the end

A, E, F, C

F F

ordinary, ordinary

CHORUS:

C G Fii Eii C

a look in the mirror is not enough

C G F

what makes you think that youre not one of us?

A, E, F, C

Verse3:

if you make it up and start to use your mind

it isnt difficult you dont know whats there if you dont try

A, E, F, C

F F

ordinary, ordinary

repeat CHORUS

A, E, F, C

A (let ring)

make various chaotic guitar noises for a while

(i dont know the solo)

A, G

repeat CHORUS

F F

ordinary, ordinary

ordinary, ordinary

A, E, F, C

end on C

Get this song at:  amazon.com sheetmusicplus.com

Share your thoughts

0 Comments found