Face to Face

Face to Face - Nothing New guitar tab

-------------------------------------------------------------------------------

NOTHING NEW - Face To Face

-------------------------------------------------------------------------------

Moon Doggie - xianmc@ssimicro.com

INTRO:

e|-------------------------------------------------------------------|

B|-------------------------------------------------------------------|

G|--7-7-7-7-7-7-7-7-7-7-7-7-6-6-6-6-2-2-2-2-2-2-2-2-7-7-7-7-6-6-6-6--|

D|--7-7-7-7-7-7-7-7-7-7-7-7-7-7-7-7-0-0-0-0-0-0-0-0-7-7-7-7-7-7-7-7--|

A|--5----------------------------------------------------------------|

E|-------------------------------------------------------------------|

VERSE:

G G G A

There is nothing new put in front of you Nothing you don't understand

G G G A

Don't try to rationalize No one hears your lies Only you can comprehend

GO! (repeat intro)

G G G A

You don't want to see You don't want to hear You don't want to feel at all

G G

Tell me that you've tried Mind is open wide

G A

But you're not listening at all

CHORUS:

D G

Please don't question me I don't have the time

D A G

if there's a problem than it's easier to set aside

B G (see tab)

There is nothing that will make you want to change your mind

e|--------------------------------------------------------|

B|--------------------------------------------------------|

G|--7-----------------------------------------------------|

D|--7--------------7-----------------5---9---7---7--6--7--|

A|--5--------------7-----------------5---9---7---5--4--5--|

E|-----------------5-----------------3---7---5------------|

You can't take it You can't make it

e|----------------------------------------------------------|

B|----------------------------------------------------------|

G|----------------------------------------------------------|

D|--7--------------------------5---9---7---7--6--7--7-7-7-7-|

A|--7--------------------------5---9---7---5--4--5--7-7-7-7-|

E|--5--------------------------3---7---5------------5-5-5-5-|

You can't make it so why try? You can't make it

e|------------------------------------------------------------------|

B|------------------------------------------------------------------|

G|-7---------------------7---------------------7--------------------|

D|-7---7---9---5-5-5-5---7---7---9---5-5-5-5---7---7---9---5-5-5-5--|

A|-5---7---9---5-5-5-5---5---7---9---5-5-5-5---5---7---9---5-5-5-5--|

E|-----5---7---3-3-3-3-------5---7---3-3-3-3-------5---7---3-3-3-3--|

so why try?

e|-------------------|

B|-------------------|

G|-------------------|

D|--5---9---7-7-7-7--|

A|--5---9---7-7-7-7--|

E|--3---7---5-5-5-5--|

SOLO:

e|-------------------------------------------------------------------------|

B|-------------------------------------------------------------------------|

G|--7-7-7-7-6-6-7-9-11-11-11-11-12-12-11-9-7-7-7-7-6-6-7-6-2-2-2-2-0-0-2-2-|

D|--0-0-0-0-0-0-0-0-0--0--0--0--0--0--0--0-0-0-0-0-0-0-0-0-0-0-0-0-0-0-0-0-|

A|-------------------------------------------------------------------------|

E|-------------------------------------------------------------------------|

e|--------------------------------------------------------------------|

B|--------------------------------------------------------------------|

G|--7-7-7-7-6-6-7-9-11-11-11-11-12-12-11-9-7-7-7-7-6-6-7-6------------|

D|--0-0-0-0-0-0-0-0-0--0--0--0--0--0--0--0-0-0-0-0-0-0-0-0--7---------|

A|----------------------------------------------------------7---------|

E|----------------------------------------------------------5---------|

PRECHORUS:

G

There is nothing new put in front of you

G

Tell me that you've tried Tell me that your mind is open

CHORUS (is normal up until...)

e|------------------------------------------------------------------|

B|------------------------------------------------------------------|

G|-7-7-7-7-7-7-7-7-7-7-7-7-6-6-6-6-7-7-7-7-7-7-7-7-7-7-7-7-6-6-6-6--|

D|-0-0-0-0-0-0-0-0-0-0-0-0-0-0-0-0-0-0-0-0-0-0-0-0-0-0-0-0-0-0-0-0--|

A|------------------------------------------------------------------|

E|------------------------------------------------------------------|

You can't make it so why try? You can't make it

e|----------------------------------------|

B|----------------------------------------|

G|-2-2-2-2-2-2-2-2---7--6--2-----7--------|

D|-0-0-0-0-0-0-0-0---0--0--0-----7--------|

A|-------------------------------5--------|

E|-------------------------------5--------|

=====================================================================

Get this song at:  amazon.com sheetmusicplus.com

Share your thoughts

0 Comments found