Face to Face

Face to Face - No Authority guitar tab

-##

Artist: Face to Face

Song: No Authority

Album: No Authority 7"

Tabbed by: Wheelz (rbreck@foxnet.net)

This song only has 3 parts to it. Here they are, listen to the record for

the rythem and order.

e|--------------------------------------|

B|--------------------------------------|

G|----6------------6------------14------|

D|----6---9---7----6---9---7----14------|

A|----4---9---7----4---9---7----12------|

E|--------7---5--------7---5------------|

e|---------------------------------------------------------|

B|---------------------------------------------------------|

G|------6-----9-----6-----9-----6-----9-----6--------------|

D|---9--6--7--9--9--6--5--9--9--6--7--9--9--6--7--2--------|

A|---9--4--7--7--9--4--5--7--9--4--7--7--9--4--7--2--------|

E|---7-----5-----7-----7-----7-----5-----7-----5--0--------|

e|----------------------|

B|----------------------|

G|---9-------6----------|

D|---9---7---6---9------|

A|---7---7---4---9------|

E|-------5-------7------|

Get this song at:  amazon.com sheetmusicplus.com

Share your thoughts

0 Comments found