Face to Face

Face to Face - Merchandise guitar tab

-------------------------------------------------------------------------------

MERCHANDISE - Face to Face

-------------------------------------------------------------------------------

By:cool_clown (cool_clown@hotmail.com)

e|------------------------------------------------|

B|------------------------------------------------|

G|------------------------------------------------|

D|----5------5------5------5----------------------|repeat many time

A|------------------------------------------------|

E|-33----33-----33-----33-----33------------------|

^^ ^^ ^^ ^^ ^^

e|--------------------------------------------------------|

B|--------------------------------------------------------|

G|--------------------------------55-5-55-5---------------|

D|-55-5-66-6-77-7-77-7--22-2-22-2-55-5-55-5---------------| X6 without palm mute last time

A|-55-5-66-6-77-7-77-7--22-2-22-2-33-3-33-3---------------| on C

E|-33-3-44-4-55-5-55-5--00-0-00-0-------------------------|

^^ ^^ ^^ ^^ ^^ ^^ ^^ ^^

e|-----------------------------------------|

B|-----------------------------------------|

G|-------2-4-2-4-44------77777-------------|

D|-44444-2-4-2-4-44-4444-77777-------------|X2

A|-44444-0-2-0-2-22-4444-55555-------------|

E|-22222------------2222-------------------|

e|--------------------------------------------------------|

B|--------------------------------------------------------|

G|--------------------------------55-5-55-5---------------|

D|-55-5-66-6-77-7-77-7--22-2-22-2-55-5-55-5---------------| X6 without palm mute last time

A|-55-5-66-6-77-7-77-7--22-2-22-2-33-3-33-3---------------| on C

E|-33-3-44-4-55-5-55-5--00-0-00-0-------------------------|

^^ ^^ ^^ ^^ ^^ ^^ ^^ ^^

e|-----------------------------------------|

B|-----------------------------------------|

G|-------2-4-2-4-44------77777-------------|

D|-44444-2-4-2-4-44-4444-77777-------------|X2

A|-44444-0-2-0-2-22-4444-55555-------------|

E|-22222------------2222-------------------|

e|------------------------------------------------|

B|------------------------------------------------|

G|------------------------------------------------|

D|----5------5------5------5----------------------|repeat many time

A|------------------------------------------------|

E|-33----33-----33-----33-----33------------------|

^^ ^^ ^^ ^^ ^^

e|---------------------------|

B|---------------------------|

G|----------55555------------|

D|-5-6-7--2-55555------------|X4

A|-5-6-7--2-33333------------|

E|-3-4-5--0------------------|

e|-------------------------------------------------------------|

B|-------------------------------------------------------------|

G|-------2-4-2-4-44------77777--------2-4-2-4-44------77777----|

D|-44444-2-4-2-4-44-4444-77777--44444-2-4-2-4-44-4444-77777----|

A|-44444-0-2-0-2-22-4444-55555--44444-0-2-0-2-22-4444-55555----|

E|-22222------------2222--------22222------------2222----------|

e|-------------------------------------------------------------|

B|-------------------------------------------------------------|

G|-------2-4-2-4-44------77777--------2-4-2-4-44------7-7-7----|

D|-44444-2-4-2-4-44-4444-77777--44444-2-4-2-4-44-4444-7-7-7----|

A|-44444-0-2-0-2-22-4444-55555--44444-0-2-0-2-22-4444-5-5-5----|

E|-22222------------2222--------22222------------2222----------|

If there's any mistakes please e-mail me

===============================================================================

Get this song at:  amazon.com sheetmusicplus.com

Share your thoughts

0 Comments found