Face to Face

Face to Face - Late guitar tab

-------------------------------------------------------------------------------

LATE - Face To Face

-------------------------------------------------------------------------------

By Cleatus

begining part (no words)

e------------------------------------------------------------------I

B------------------------------------------------------------------I

G--5---------------------------------------------------------------I

D--5-5-3-----------------------------------------------------------I

A--3-5-3-----------------------------------------------------------I

E----3-1-----------------------------------------------------------I

verse

e------------------------------------------------------------------I

B------------------------------------------------------------------I

G--------------5--7--10--9-----------------------------------------I

D-3----------------------------------------------------------------I

A-3-(muffled)--3--5---8--7-----------------------------------------I

E-1----------------------------------------------------------------I

"i dont wanna be,i dont want to be late" chours

e------------------------------------------------------------------I

B------------------------------------------------------------------I

G-5---------------5--------------5---------------------------------I

D-5-5-3--x2-------5-5-7-3--x1----5-5-3-----x1----------------------I

A-3-5-3-----------3-5-7-3--------3-5-3-----------------------------I

E---3-1-------------3-5-1----------3-1-----------------------------I

bridge

e------------------------------------------------------------------I

B--------8-----8--------5-----5------------------------------------I

G------5-----5-------5------5--------------------------------------I

D----7-----7-------5------5----------------------------------------I

A------------------------------------------------------------------I

E------------------------------------------------------------------I

-------------------------------------------------------------------------------

Get this song at:  amazon.com sheetmusicplus.com

Share your thoughts

0 Comments found