Face to Face

Face to Face - In Harms Way bass tab

IN HARMS WAY by Face To Face. Album : Ignorance Is Bliss (1999)

:

# intro # *=play x10 #=play x4-6

G---------------------------------------------------|

D----*-----*---*------------*---*---#---------------|

A---3---0-7---3----#---#---3---7---3----#---#---#---|

E-----------------0---3----------------5---0---3----|

:

# verse # *=play x10 #=play x4-6 += play x16

G------------------------------------------------------------------>|

D----*----------*------------*-----------*------------+--------+--->|

A---3------*---3----#---#---3------*----3----#---#---3----+---3---->|

E-------0-3--------0---3--------0-3---0-----0---3--------0--------->|

:

G---------------------------------------------------------|

D-------------*---------*------------*--------*-----------|

A----#---#---3----*----3----#---#---3----*---3----#---#---|

E---0---3--------3---0-----0---3--------3--------0---3----|

:

# chorus # *=play x16 #=play x4-6

G---------------------------------------------------|

D----*--------*------------*--------#---------------|

A---3----*---3----#---#---3----*---3----#---#---#---|

E-------0--------0---3--------0--------5---0---3----|

:

# during-solo # *=play x10 #=play x4-6

G---------------------------------------------------|

D----*-----------*------------*--------#-----#------|

A---3------*----3----#---#---3----*---3---/12-------|

E-------0-3---0-----0---3--------3--------------0---|

:

# bridge # *=play x8

G--------------------------------------------------|

D---------*---*----*----*----*--------*---*----*---|

A----*---5---3---10---12---12----*---5---3---10----|

E---5---------------------------5------------------|

:

# fill # *=play x10 #=play x4-6 += play x6

G--------(x3)--------|---------------------------|

D----*---*-----------|----+---+-----+------------|

A---3---0----#---#---|---3---0---/12----#---#----|

E-----------3---0----|-----------------3---0-----|

:

The play chorus x2

:

# fading-outro #

G---------------------------------------------------------------->|

D---------------------------------------------------------------->|

A---3/15---0---33---/12---33/15---00--0000--00---33--/53---00--->|

E---------------------------------------------------------------->|

:

G----------------------------------|

D----------------------------------|

A---33/15---00---33/12---00---33---|

E----------------------------------|

:

Tabbed by Bradley Hall

Taken from The BassMasta -- http://www.tabs-database.com

Get this song at:  amazon.com sheetmusicplus.com

Share your thoughts

0 Comments found