Face to Face

Face to Face - In Between Days guitar tab

-------------------------------------------------------------------------------

IN BETWEEN DAYS - Face To Face

-------------------------------------------------------------------------------

INTRO:

E-------------------------------------------------------------------------------

B-------------------------------------------------------------------------------

G-------------------------------------------------------------------------------

D-7-7-7-7-7-7-7-6-2-2-2-7-7-7-7-7-7-7-9-11-11-11-7-7-7-7-7-7-7-6-2-2-12-12-12-7-

A-------------------------------------------------------------------------------

E-------------------------------------------------------------------------------

INTRO con.t..

D--12-12-12-7-6-2

VERSES

E-------------------------------------------

B-------------------------------------------

G -----7------------------------------------

D --7--7------------------------------------

A --7--5------------------------------------

E --5---------------------------------------

PRE-CHORUS

E-------------------------------------------

B-------------------------------------------

G---9-9-9-7-6-7-----------------------------

D-------------------------------------------

A-------------------------------------------

E-------------------------------------------

CHORUS

E-------------------------------------------

B-------------------------------------------

G---4-h6-4-h6-4-h6-9-7---4-h6-4-h6-4-h6-2---

D-------------------------------------------

A-------------------------------------------

E-------------------------------------------

-------------------------------------------------------------------------------

Get this song at:  amazon.com sheetmusicplus.com

Share your thoughts

0 Comments found