Face to Face

Face to Face - Im Trying (Live) guitar tab

-------------------------------------------------------------------------------

I'M TRYING (LIVE) - Face To Face

-------------------------------------------------------------------------------

By:lbcdank@aol.com

intro:

e|---------------------------------------------------------------------------|

B|-9--9-- 7 times-9--9--7--7--6-6-7-----------------------------------------

G|--6--6--- --------6--6--6--6--6-6-6----------------------------------------

D|---6--6------------6--6--6--6--6---6---------------------------------------

A|---------------------------------------------------------------------------|

E|---------------------------------------------------------------------------|

cool riffage:

e|---------------------------------------------------------------------------|

B|---------------------------------------------------------------------------|

G|--6-6-----8-8----10 10----11 11--(x2)-6-6---8-8--6-6-----------------------

D|--6-6-----8-8----10 10----11 11-------6-4---8-8--6-6--6-6------------------

A|--4-4-----6-6-----8-8------9 -9-------4-4---6-6--4-4--6-6------------------

E|------------------------------------------------------4-4----------------

e|---------------------------------------------------------------------------|

B|---------------------------------------------------------------------------|

G|--6-6---8-8---10-10---11-11------6-----------------------------------------

D|--6-6---8-8---10-10---11-11------x-let ring--------------------------------

A|--4-4---6-6----8--8----9--9------4-----------------------------------------

E|---------------------------------------------------------------------------|

verse:

e|---------------------------------------------------------------------------|

B|---------------------7-6--7-6---7-6---7-6---9-7-6--6--9-7-6--6-------------

G|--6----------slide/6-----6----6-----6-----6-------6-6-------6-6------------

D|--x-let ring---------------------------------------------------------------

A|--4------------------------------------------------------------------------

E|---------------------------------------------------------------------------|

Chorus:

e|---------------------------------------------------------------------------|

B|---------------------------------------------------------------------------|

G|--6-6---8-8--10-10--11-11---(x2)-------------------------------------------

D|--6-6---8-8--10-10--11-11--------------------------------------------------

A|--4-4---6-6---8--8---9--9--------------------------------------------------

E|---------------------------------------------------------------------------|

to verse then back to chorus & then:

e|---------------------------------------------------------------------------

B|--9--9--9--9--9--9--9------------------------------------------------------

G|---6--6--6--6--6--6--6---play until----------------------------------------

D|----6--6--6--6--6--6--6----------------------------------------------------

A|---------------------------------------------------------------------------|

E|---------------------------------------------------------------------------|

this riff

e|---------------------------------------------------------------------------|

B|---------------------------------------------------------------------------|

G|--6-6--8-8--6-6---------------------------p.m.--6-6-------6-6--------------

D|--6-6--8-8--6-6-6-6---4-4-let ring--x4-x4-x4----6-6-6-6-4-6-6--------------

A|--4-4--6-6--4-4-6-6---4-4-----------x4-x4-x4----4-4-6-6-4-4-4--------------

E|----------------4-4---2-2-----------x2-x2-x2--------4-4-2------------------

e|---------------------------------------------------------------------------|

B|---------------------------------------------------------------------------|

G|---------6-6-----(chorus)--(intro till end ---6----------------------------

D|-6-6-4-4-6-6-6-6---x4---------------end on 6----------------------------

A|-6-6-4-4-4-4-6-6--------------------------- 4----------------------------

E|-4-4-2-2-----4-4-----------------------------------------------------------

-------------------------------------------------------------------------------

Get this song at:  amazon.com sheetmusicplus.com

Share your thoughts

0 Comments found