Face to Face

Face to Face - Im Trying guitar tab

-------------------------------------------------------------------------------

I'M TRYING - Face To Face

-------------------------------------------------------------------------------

Moon Doggie - xianmc@ssimicro.com

INTRO:

e|---5--------5-------5--------5-------5--------5-------|

B|------3-------3--------3-------3--------3-------3-----|

G|----------2------2---------2------2---------2------2--|

D|------------------------------------------------------|

A|------------------------------------------------------|

E|------------------------------------------------------|

e|-----------------------------------------------|

B|-----------------------------------------------|

G|---7----------9--------------------------------|

D|---7----------9----------4----------5----------|

A|---5----------7----------5----------5----------|

E|-------------------------5----------3----------|

VERSE:

D G B G

Four-year-old at play shot and killed today Never even had a chance

D G B G (see tab)

Seventeen and high, threw away his life Has a gun to feel like a man

e|-----------------------------------------------|

B|-----------------------------------------------|

G|---7----------9----------7---------------------|

D|---7----------9----------7----------5----------|

A|---5----------7----------5----------5----------|

E|------------------------------------3----------|

Can't have it any other way

VERSE:

D G B G

Laying in the street, asking for a drink Doesn't have a place to live

D G B

Pregnant at thirteen, still can hear the screams

G D E D G

Something that she never will forget Can't have it any other way

CHORUS:

(intro)

I'm trying to open my mind

e|------------------------------------------------------------|

B|------------------------------------------------------------|

G|--7---9---7-------------------------------------------------|

D|--7---9---7---5-5-5-5-5-------------------------------------|

A|--5---7---5---5-5-5-5-5-------------------------------------|

E|--------------3-3-3-3-3-------------------------------------|

So you can keep your faith

and i'll just walk away

D A

There's no reason for me to stay

e|--------------------------------------|

B|--------------------------------------|

G|------------7-------------------------|

D|---5--------7--------7----------------|

A|---5--------5--------7----------------|

E|---3-----------------5----------------|

D E D G

Can't have it any other way

CHORUS:

(intro)

I'm trying to open my mind, my mind

D

I'm trying to make up my mind_______

=====================================================================

Get this song at:  amazon.com sheetmusicplus.com

Share your thoughts

0 Comments found