Face to Face

Face to Face - Im Not Afraid (Live) guitar tab

-------------------------------------------------------------------------------

I'M NOT AFRAID (LIVE) - Face To Face

-------------------------------------------------------------------------------

By:lbcdank@aol.com

intro:x4

e|---------------------------------------------------------------------------|

B|---------------------------------------------------------------------------|

G|------5555-3333-5555-------------------------------------------------------|

D|-3333-5555-3333-5555-------------------------------------------------------|

A|-3333-3333-1111-3333-------------------------------------------------------|

E|-1111----------------------------------------------------------------------|

e|---------------------------------------------------------------------------|

B|---------------------------------------------------------------------------|

G|1010-10-------------(x2)1010-10--------------------------------------------|

D|1010-10-10101010---- 1010-10-7-7-8-8-101010-----------------------------|

A|-8-8- 8 10101010----- 8--8--8-7-7-8-8-101010-----------------------------|

E|--------8-8--8-8----------------5-5-6-6--8-8-8-----------------------------|

verse:

e|---------------------------------------------------------------------------|

B|---------------------------------------------------------------------------|

G|-------------3-3-3---------------------------------------------------------|

D|-3-3-3-5-5-5-3-3-3---------------------------------------------------------|

A|-3-3-3-5-5-5-1-1-1---------------------------------------------------------|

E|-1-1-1-3-3-3---------------------------------------------------------------|

riff B

e|---------------------------------------------------------------------------|

B|---------------------------------------------------------------------------|

G|--777-555-777-555-777-5555-3333--------------------------------------------|

D|--777-555-777-555-777-5555-3333--------------------------------------------|

A|--555-333-555-333-555-3333-1111--------------------------------------------|

E|---------------------------------------------------------------------------|

intro riff:

verse:

riffB:

intro riff:

e|---------------------------------------------------------------------------|

B|---------------------------------------------------------------------------|

G|-3333-1010-999-1010-999-1010-----------------------------------------------|

D|-3333-1010-xxx-1010-xxx-1010-777-888-101010--------------------------------|

A|-1111--8-8-777--8-8-777--8-8-777-888-101010--------------------------------|

E|-----------------------------555-666--8-8-8--------------------------------|

e|---------------------------------------------------------------------------|

B|---------------------------------------------------------------------------|

G|101010101010--12--14--12--10--12--15--14--12--10-12------------------------|

D|-x-x-x-x-x-x---x---x----x---x----x----x----x--x--x------x------------------|

A|-8--8--8-8-8--10--12--10---8--10--13--12--10--8--10------------------------|

E|---------------------------------------------------------------------------|

intro riff:

e|---------------------------------------------------------------------------|

B|---------------------------------------------------------------------------|

G|3333333--------------------------------------------------------------------|

D-3333333-3-----3333---------------------------------------------------------|

A|1111111-3-----3333---------------------------------------------------------|

E|--------1-----1111---------------------------------------------------------|

-------------------------------------------------------------------------------

Get this song at:  amazon.com sheetmusicplus.com

Share your thoughts

0 Comments found