Face to Face

Face to Face - Im Not Afraid guitar tab

**************************

Artist: Face To Face

Album: Face To Face Live

Song: I'm Not Afraid

**************************

Tabber : Jeff Davis - srdavis@flash.net

Intro: 4x

e ----------------------------------------------------

B ----------------------------------------------------

G ---------5-5-5--3-3-3--5-5-5------------------------

D --3-3-3--5-5-5--3-3-3--5-5-5------------------------

A --3-3-3--3-3-3--1-1-1--3-3-3------------------------

E --1-1-1---------------------------------------------

Riff A: 2x

e --------------------------------------------------------------------------------

B --------------------------------------------------------------------------------

G -11-11-11-11--5-5-5-5--7-7-7-7--5-5-5-5--3-3-3-3--2-2-2-2--3-3-3-3--5-5-5-5-----

D -11-11-11-11--5-5-5-5--7-7-7-7--5-5-5-5--3-3-3-3--2-2-2-2--3-3-3-3--5-5-5-5-----

A - 8--8--8--8--3-3-3-3--5-5-5-5--3-3-3-3--1-1-1-1--0-0-0-0--1-1-1-1--3-3-3-3-----

E --------------------------------------------------------------------------------

Riff B: 4x

e -----------------------------------------------------------

B -----------------------------------------------------------

G -----------------------------------------------------------

D --3-3-3-3--5-5-5-5--8-8-8-8-8-8-8-8------------------------

A --3-3-3-3--5-5-5-5--8-8-8-8-8-8-8-8------------------------

E --1-1-1-1--3-3-3-3--6-6-6-6-6-6-6-6------------------------

Riff C: 1x

e ------------------------------------------------------------------------

B ------------------------------------------------------------------------

G --7-7-7-7--5-5-5-5--7-7-7-7--5--7-7-7-7--5-5-5-5--3-3-3-3-3-3-3-3-------

D --7-7-7-7--5-5-5-5--7-7-7-7--5--7-7-7-7--5-5-5-5--3-3-3-3-3-3-3-3-------

A --5-5-5-5--3-3-3-3--5-5-5-5--3--5-5-5-5--3-3-3-3--1-1-1-1-1-1-1-1-------

E ------------------------------------------------------------------------

Riff D: 2x

e ------------------------------------------------------------------------------

B ------------------------------------------------------------------------------

G --3-3-3-3-3-3---------5-5-5--7-7-7--5-5-5--3-3-3---2-2-2--3-3-3--5-5-5--------

D --3-3-3-3-3-3--3-3-3--5-5-5--7-7-7--5-5-5--3-3-3---2-2-2--3-3-3--5-5-5--------

A --1-1-1-1-1-1--3-3-3--3-3-3--5-5-5--3-3-3--1-1-1---0-0-0--1-1-1--3-3-3--------

E ---------------1-1-1----------------------------------------------------------

Riff E: 1x

e --------------------------------------------------------------

B --------------------------------------------------------------

G -11-11-11-11-11-11-11-11--------------------------------------

D -11-11-11-11-11-11-11-11--11--12--14--13--11--14--12--11------

A --8--8--8--8--8--8--8--8---8--10--12--10---8--12--10---8------

E --------------------------------------------------------------

Riff F: 1x

e --------------------------------------------------------------

B --------------------------------------------------------------

G --------------------------------------------------------------

D --------------------------------------------------------------

A --3-3-3--3-3-3--3-3-3--3-3-3----------------------------------

E --1-1-1--1-1-1--1-1-1--1-1-1----------------------------------

order:

Intro

Riff: A

Riff: B

Riff: C

Intro:

Riff: A

Riff: B

Riff: C

Intro:

Riff: D

Riff: E

Intro:

Riff: F

Get this song at:  amazon.com sheetmusicplus.com

Share your thoughts

0 Comments found