Face to Face

Face to Face - I'm Not Afraid bass tab

Face to Face

I'm Not Afraid

Don't Turn Away

The other tabs for this song are close but they aren't quite right.

Guitar Plays Intro for Two Measures

G|---------------------------------------------------|

D|---------------------------------------------------| X2

A|------------3-3-3-3-3-3--1-1-1-1-1-1-1-3-3-3-3-3-3-|

E|1-1-1-1-1-1----------------------------------------|

This riff doubles as the Pre Verse, and the Pre Chorus.

It is played twice before the first verse, and then only playaed

one time everywhere else.

G|------------------------------------------------------------------------------------|

D|------------------------------------------------------------------------------------|

A|-8-8-8-8-8-8-7-7-7-7-7-7-8-8-8-8-8-8-7-7-7-7-7-7-8-8-8-8-8-8------------------------|

E|-------------------------------------------------------------5-5-5-5-5-5-7-7-7-7-7-7|

Verse

G|------------------------------------------------------------|

D|------------------------------------------------------------| X4

A|--------------3-3-3-3-3-3-3-2-2-2-2-2-2-2-2-2-2-2-2-2-2-2-2-|

E|1-1-1-1-1-1-1-----------------------------------------------|

Play the pre chorus only once here

Chorus

G|------------------------------------------------|

D|------------------------------------------------| X4

A|------------3-3-3-3-3-3-1-1-1-1-1-1-3-3-3-3-3-3-|

E|1-1-1-1-1-1-------------------------------------|

Play the pre verse riff one time after the chorus also

Bridge

Play it twice, and then the strumming pattern switches, but

the notes are the same

G|--------------------------------------------------------|

D|--------------------------------------------------------| X4

A|5-5-5-5--3-3-3-3-5-5-5-5-3-3-3-3-5-5-5-5-3-3-3-3-1-1-1-1|

E|--------------------------------------------------------|

Order Goes

Intro

Pre Verse X2 (This time only)

Verse

Pre Verse

Chorus

Pre Verse

Verse

Pre Verse

Chorus

Bridge

Chorus

Tabbed by Jonathan Takish

Get this song at:  amazon.com sheetmusicplus.com

Share your thoughts

0 Comments found