Face to Face

Face to Face - I Wont Lie Down guitar tab

Band: Face To Face

Song: I Wont Lie Down

Album: Face To Face

Date: July 19, 2003

Tabber: Joseph Crane (cosmicpunk22) icw_co@hotmail.com

Light Palm Mute: ...

Guitar 1 intro|verse

|-------------|--------------------------------------

|-------------|--------------------------------------

|-------------|--------------------------------------

|-33333333----|--33333333-55555555-66666666-88888888-

|-33333333-x5-|--33333333-55555555-66666666-88888888- x4

|-11111111----|--11111111-33333333-44444444-66666666-

Guitar 2 intro|verse

|-------------|--------------------------------------

|-------------|--------------------------------------

|-------------|-----------10101010-13131313-12121212-

|-------------|-----------10101010-13131313-12121212-

|-------------|-----------8-8-8-8--11111111-10101010- x4

|-------------|--------------------------------------

Pre-Chorus

|--------------------

|--------------------

|--------------------

|-66666666-3333-5555-

|-66666666-3333-5555- x4

|-44444444-1111-3333-

And Everyone...Can't Be Right...

But Everyone...Will Decide...

Chorus

|-------------------------------------

|-------------------------------------

|----------------------------66666666-

|-66666666-88888888-33333333-66666666-

|-66666666-88888888-33333333-44444444- x2

|-44444444-66666666-11111111----------

I'm not afraid of the price I pay, I won't lie down as you walk away

Guitar 1 Verse

|-------------------------------------

|-------------------------------------

|-------------------------------------

|-33333333-55555555-66666666-88888888-

|-33333333-55555555-66666666-88888888- x4

|-11111111-33333333-44444444-66666666-

Guitar 2 Verse

|-------------------------------------

|-------------------------------------

|----------10101010-13131313-12121212-

|----------10101010-13131313-12121212-

|----------8-8-8-8--11111111-10101010- x4

|-------------------------------------

Pre-Chorus

|--------------------

|--------------------

|--------------------

|-66666666-3333-5555-

|-66666666-3333-5555- x4

|-44444444-1111-3333-

And Everyone...Can't Be Right...

But Everyone...Will Decide...

Chorus

|-------------------------------------

|-------------------------------------

|----------------------------66666666-

|-66666666-88888888-33333333-66666666-

|-66666666-88888888-33333333-44444444- x2

|-44444444-66666666-11111111----------

I'm not afraid of the price I pay, I won't lie down as you walk away

Solo (One Guitar Only)

|---------------------------------

|---------------------------------

|---------------------------------

|---------------------------------

|-8-8-8-8-6-6-6-6-4-4-4-4-3-3-3-3-

|---------------------------------

|----------------------------------

|---------------9----------------9-

|-0-10-10-8-8-5---0-10-10-8-8-5----

|----------------------------------

|---------------------------------- x2

|----------------------------------

............. .............

|----------------------------------

|---------------9----------------9-

|-0-10-10-8-8-5---0-10-10-8-8-5----

|----------------------------------

|---------------------------------- x2

|----------------------------------

|---|---------------

|---|---------------

|-0-|-10-10-8-8-5-5-

|---|---------------

|---|--------------- x5

|---|---------------

Pre-Chorus

|--------------------

|--------------------

|--------------------

|-66666666-3333-5555-

|-66666666-3333-5555- x4

|-44444444-1111-3333-

And Everyone...Can't Be Right...

But Everyone...Will Decide...

Chorus

|----------------------------------------|---|

|----------------------------------------|---|

|----------------------------66666666----|---|

|-66666666-88888888-33333333-66666666----|-6-|

|-66666666-88888888-33333333-44444444-x4-|-6-|

|-44444444-66666666-11111111-------------|-4-|

I'm not afraid of the price I pay, I won't lie down as you walk away

Did Ya Have Fun? Good. Check Out My Other Tabs, And Email Me With Comments, Corrections,

Or If U Wanna Chat, lol.

CosmicPUNK22

Get this song at:  amazon.com sheetmusicplus.com

Share your thoughts

0 Comments found