Face to Face

Face to Face - I Won't Lie Down bass tab

intro (starts with guitar octaves... then the bass comes in on the 3rd sec with...)

g

d

a----------------3-3-3-3-3-3-3-3-4-4-4-4-4-4-4-4-6-6-6-6-6-6-6--(2x)-----------------

e-1-1-1-1-1-1-1-1--------------------------------------------------------------------

verse1 (singning... "does anybody see him....")

g------------------------------------------------------------------------------------

d------------------------------------------------------------------------------------

a----------------3-3-3-3-3-3-3-3-4-4-4-4-4-4-4-6-6-6-6-6-6-6----(2X)-----------------

e-1-1-1-1-1-1-1-1--------------------------------------------------------------------

pre-chorus (... and every one...)

g------------------------------------------------------------------------------------

d------------------------------------------------------------------------------------

a-4-4-4-4-4-4-4-4-----------3-3-3-3-3-3------------(4x)------------------------------

e----------------1-1-1-1-1-1---------------------------------------------------------

chorus( i'm not afraid of the price i pay...)

g------------------------------------------------------------------------------------

d------------------------------------------------------------------------------------

a-----------------1-1-1-1-1-1-1-1------------------4-4-4-4-4-4-4-4-------(2x)--------

e-4-4-4-4-4-4-4-4-----------------1-1-1-1-1-1-1-1-1----------------------------------

break down

g------------------------------------------------------------------------------------

d------------------------------------------------------------------------------------

a-4-ring-6-ring-1-ring-3-ring-----(2x)/--then--4-4-4-4-4-6-6-6-6-6-1-1-1-1-1-3-3-3-3-

e------------------------------------------------------------------------------------

Taken from The BassMasta -- http://www.tabs-database.com

Get this song at:  amazon.com sheetmusicplus.com

Share your thoughts

0 Comments found