Face to Face

Face to Face - I Wont Lie Down 2 guitar tab

Guitar -1- Solo

e---------|-------|----------|---------------|

b---------|-------|----------|-----------5-5-|

g-------3-|-------|-6--------|-5-5-4-4-2-----|

D-3-6-7-3-|-5-3-6-|-5--------|---------------|

A-3-6-7-1-|-5-3-6-|-5--------|---------------|

E-1-4-5---|-7-1-4-|-7--------|---------------|

Guitar -2- Pre-solo

e---------|-------|----------|---------------------------------|

b---------|-------|------6-7-|---------------------------------|

g-12------|-------|-9-11-6-7-|-9-9-9---7-7-7---5-5-5---1-1-1---|

D-12------|-5-3-6-|-9-11-6-7-|-9-9---9-7-7---7-5-5---5-1-1---1-|

A-10------|-5-3-6-|-7--9-4-5-|-7-7-----5-5-----3-3-----2-2-----|

E---------|-7-1-4-|----------|---------------------------------|

Get this song at:  amazon.com sheetmusicplus.com

Share your thoughts

0 Comments found