Face to Face

Face to Face - I Want guitar tab

-##

this is 'i_want.crd' of face to face's 'I want'

"I Want" by face to face off of 'Don't Turn Away'

tabbed by quickd@nether.net

Chords:

high F D C Bb

|-----| |-----| |-----| |-----| |-----| |-----|

|-----| |-----| |-----| |-----| |-----| |-----|

|--10-| |--7--| |--5--| or |-----| |--3--| or |-----|

|--10-| |--7--| |--5--| |--10-| |--3--| |--8--|

|--8--| |--5--| |--3--| |--10-| |--1--| |--8--|

|-----| |-----| |-----| |--8--| |-----| |--6--|

F G A

|-----| |-----| |-----|

|-----| |-----| |--2--|

|-----| |-----| |--2--|

|--3--| |--5--| |--2--|

|--3--| |--5--| |-----|

|--1--| |--3--| |-----|

Intro/Chorus is

high F -> D -> high F -> C -> D -> Bb

Verse is

F -> C -> G -> Bb -> A

ii dont' know the lil bridge thing between teh chorus and the verse but

it sounds sorta like the high e and b strings at fret one or somewhere

around there.

listen to the song and figure out the rhythm

this is my first attempt at tabbing..it's righti think..but i know i

didn't do a good job presenting it..sorry

Get this song at:  amazon.com sheetmusicplus.com

Share your thoughts

0 Comments found