Face to Face

Face to Face - I Know You Well guitar tab

-------------------------------------------------------------------------------

I KNOW YOU WELL - Face to Face

-------------------------------------------------------------------------------

By: Keith Leong - sadaround@hotmail.com

Hey, this is my first tab of a real song...i got tired of not knowing how to

play it, so i somehow managed to overcome a tin ear to figure it out myself...

i think. if anyone thinks any of this is off, please leamme know. thanks.

Intro/Verse:

e|---------------------------------------------------------------------------|

B|---------------------------------------------------------------------------|

G|--6----11----------13----14-13-11-13---------------------------------------|

D|--x----x-- (x5)----13----x--x--x--x----------------------------------------|

A|--4----9-----------11----12-11-9--11---------------------------------------|

E|---------------------------------------------------------------------------|

*i'm not so sure about that last part, just fiddle around with it and go with

what sounds best to you i guess. =)

Chorus:

e|---------------------------------------------------------------------------|

B|---------------------------------------------------------------------------|

G|-------7-------------------------------------------------------------------|

D|--7----7--(x3)----2----5---------------------------------------------------|

A|--7----5----------2----5---------------------------------------------------|

E|--5---------------0----3---------------------------------------------------|

Bridge:

e|---------------------------------------------------------------------------|

B|---------------------------------------------------------------------------|

G|--11----7----11---12---------7--------------7------------------------------|

D|--x-----x----x----x--(x2)----7----7----4----7--(x2)------------------------|

A|--9-----5----9----10---------5----7----4----5------------------------------|

E|----------------------------------5----2-----------------------------------|

the end i think is the G from the end of the chorus, a C#, and slide up the

neck from there making noise to make a baby cry.

-------------------------------------------------------------------------------

Get this song at:  amazon.com sheetmusicplus.com

Share your thoughts

0 Comments found