Face to Face

Face to Face - I Know What You Are bass tab

After guitar and Drum intro.

G|--------------|

D|--------------|

A|--------------|

E|-0-12--------|

Intro 4x

G|--------------------------|

D|--------------------------|

A|--------------------------|

E|-3-3-0-6-6-0-3-0-6-0-6-0--|

Verse

G|---------------------------------------------------------------|

D|---------------------------------------------------------------|

A|-------------------666-0-333-0---------------------66666666----|

E|-333---333---333-----------------333---333---333---------------|

G|------------------------------------|

D|------------------------------------|

A|-------------------666-0-333-0------|

E|-333---333---333--------------------|

Pre-Chorus (Focused and unaffected..)

G|------------------------------------------|

D|------------------------------------------|

A|-----5555--6>--3>------5555--6>--7>-------|

E|-6>----------------6>---------------------|

Chorus (you're boring and predictable...)

G|------------------------------------------|

D|------------------------------------------|

A|------5>---3>---6>-----------6>--3>-------|

E|-3>------------------6>--5>---------------|

Intro 4x

Verse

Pre-Chorus

Chorus

Intro

Bridge (wicked switch)

G|-----------------------------------------------------------------------|

D|-----------------------------------------------------------------------|

A|---------6>--6------6>---------------6>--6------6>---------------------|

E|-***666---------3>-------3333--6666---------3>------3333--6666---------|

Outro (I know what you are...)

G|-----------------------------------------------|

D|-----8--------------------8--------------------|

A|-6666-677------------6666-677----------------|

E|------------33233333------------3333--6666-----|

That's it. Another Great Face to Face tune. This one's very easy.

*NakedBassist

Taken from The BassMasta -- http://www.tabs-database.com

Get this song at:  amazon.com sheetmusicplus.com

Share your thoughts

0 Comments found