Face to Face

Face to Face - How To Ruin Everything guitar tab

Submitted by:ZaideDH

Artist:Face To Face

Song Title:How to Ruin Everything

This tab only has the chords and not the pace strumming or how many times you play each

chord. Just listen to the song and improvise.It's the last song on the album "How to Ruin

(the Disk)"

Verse

e|3--------2-3-2-

B|3--1--1--3-3-3-

G|0--2--0--2-2-2-

D|0--2--2--0-0-0-

A|2--0--3--------

E|3--------------

Pre-Chorus

e|0--3--0-----2-3-2

B|0--3--1--1--3-3-3

G|0--0--2--0--2-2-2

D|2--0--2--2--0-0-0

A|2--2--0--3-------

E|0--3-------------

Chorus

e|3--2--------2--3

B|3--3--1--1--3--3

G|0--2--2--0--2--0

D|0--0--2--2--0--0

A|2-----0--3-----2

E|3--------------3

Enjoy

Get this song at:  amazon.com sheetmusicplus.com

Share your thoughts

0 Comments found